  0
SECTION
  2
HEADER
  9
$ACADVER
  1
AC1015
  9
$ACADMAINTVER
 70
     6
  9
$DWGCODEPAGE
  3
ANSI_1252
  9
$INSBASE
 10
0.0
 20
0.0
 30
0.0
  9
$EXTMIN
 10
-1258.725
 20
919.1358
 30
0.0
  9
$EXTMAX
 10
236.5037
 20
1845.7222
 30
0.0
  9
$LIMMIN
 10
0.0
 20
0.0
  9
$LIMMAX
 10
12.0
 20
9.0
  9
$ORTHOMODE
 70
     0
  9
$REGENMODE
 70
     1
  9
$FILLMODE
 70
  -102
  9
$QTEXTMODE
 70
     0
  9
$MIRRTEXT
 70
     1
  9
$LTSCALE
 40
1.0
  9
$ATTMODE
 70
     1
  9
$TEXTSIZE
 40
0.2
  9
$TRACEWID
 40
0.05
  9
$TEXTSTYLE
  7
Standard
  9
$CLAYER
  8
0
  9
$CELTYPE
  6
Continuous
  9
$CECOLOR
 62
   256
  9
$CELTSCALE
 40
1.0
  9
$DISPSILH
 70
     0
  9
$DIMSCALE
 40
1.0
  9
$DIMASZ
 40
0.18
  9
$DIMEXO
 40
0.0625
  9
$DIMDLI
 40
0.38
  9
$DIMRND
 40
0.0
  9
$DIMDLE
 40
0.0
  9
$DIMEXE
 40
0.18
  9
$DIMTP
 40
0.0
  9
$DIMTM
 40
0.0
  9
$DIMTXT
 40
0.18
  9
$DIMCEN
 40
0.09
  9
$DIMTSZ
 40
0.0
  9
$DIMTOL
 70
     0
  9
$DIMLIM
 70
     0
  9
$DIMTIH
 70
     1
  9
$DIMTOH
 70
     1
  9
$DIMSE1
 70
     0
  9
$DIMSE2
 70
     0
  9
$DIMTAD
 70
     0
  9
$DIMZIN
 70
     0
  9
$DIMBLK
  1

  9
$DIMASO
 70
     1
  9
$DIMSHO
 70
     1
  9
$DIMPOST
  1

  9
$DIMAPOST
  1

  9
$DIMALT
 70
     0
  9
$DIMALTD
 70
     2
  9
$DIMALTF
 40
25.4
  9
$DIMLFAC
 40
1.0
  9
$DIMTOFL
 70
     0
  9
$DIMTVP
 40
0.0
  9
$DIMTIX
 70
     0
  9
$DIMSOXD
 70
     0
  9
$DIMSAH
 70
     0
  9
$DIMBLK1
  1

  9
$DIMBLK2
  1

  9
$DIMSTYLE
  2
Standard
  9
$DIMCLRD
 70
     0
  9
$DIMCLRE
 70
     0
  9
$DIMCLRT
 70
     0
  9
$DIMTFAC
 40
1.0
  9
$DIMGAP
 40
0.09
  9
$DIMJUST
 70
     0
  9
$DIMSD1
 70
     0
  9
$DIMSD2
 70
     0
  9
$DIMTOLJ
 70
     1
  9
$DIMTZIN
 70
     0
  9
$DIMALTZ
 70
     0
  9
$DIMALTTZ
 70
     0
  9
$DIMUPT
 70
     0
  9
$DIMDEC
 70
     4
  9
$DIMTDEC
 70
     4
  9
$DIMALTU
 70
     2
  9
$DIMALTTD
 70
     2
  9
$DIMTXSTY
  7
Standard
  9
$DIMAUNIT
 70
     0
  9
$DIMADEC
 70
     0
  9
$DIMALTRND
 40
0.0
  9
$DIMAZIN
 70
     0
  9
$DIMDSEP
 70
     0
  9
$DIMATFIT
 70
     3
  9
$DIMFRAC
 70
     0
  9
$DIMLDRBLK
  1

  9
$DIMLUNIT
 70
     2
  9
$DIMLWD
 70
     0
  9
$DIMLWE
 70
     0
  9
$DIMTMOVE
 70
     0
  9
$LUNITS
 70
     2
  9
$LUPREC
 70
     4
  9
$SKETCHINC
 40
0.1
  9
$FILLETRAD
 40
0.0
  9
$AUNITS
 70
     0
  9
$AUPREC
 70
     0
  9
$MENU
  1
acad
  9
$ELEVATION
 40
0.0
  9
$PELEVATION
 40
0.0
  9
$THICKNESS
 40
0.0
  9
$LIMCHECK
 70
     0
  9
$CHAMFERA
 40
0.0
  9
$CHAMFERB
 40
0.0
  9
$CHAMFERC
 40
0.0
  9
$CHAMFERD
 40
0.0
  9
$SKPOLY
 70
     0
  9
$TDCREATE
 40
2454540.469953704
  9
$TDUCREATE
 40
0.000000000
  9
$TDUPDATE
 40
2454540.469953704
  9
$TDUUPDATE
 40
0.000000000
  9
$TDINDWG
 40
0.0000000000
  9
$TDUSRTIMER
 40
0.0000000000
  9
$USRTIMER
 70
     1
  9
$ANGBASE
 50
0.0
  9
$ANGDIR
 70
     0
  9
$PDMODE
 70
     0
  9
$PDSIZE
 40
0.0
  9
$PLINEWID
 40
0.0
  9
$SPLFRAME
 70
     0
  9
$SPLINETYPE
 70
     6
  9
$SPLINESEGS
 70
    10
  9
$HANDSEED
  5
133
  9
$SURFTAB1
 70
     6
  9
$SURFTAB2
 70
     6
  9
$SURFTYPE
 70
     6
  9
$SURFU
 70
     6
  9
$SURFV
 70
     6
  9
$UCSBASE
  2

  9
$UCSNAME
  2

  9
$UCSORG
 10
0.0
 20
0.0
 30
0.0
  9
$UCSXDIR
 10
1.0
 20
0.0
 30
0.0
  9
$UCSYDIR
 10
0.0
 20
1.0
 30
0.0
  9
$UCSORTHOREF
  2

  9
$UCSORTHOVIEW
 70
     0
  9
$UCSORGTOP
 10
0.0
 20
0.0
 30
0.0
  9
$UCSORGBOTTOM
 10
0.0
 20
0.0
 30
0.0
  9
$UCSORGLEFT
 10
0.0
 20
0.0
 30
0.0
  9
$UCSORGRIGHT
 10
0.0
 20
0.0
 30
0.0
  9
$UCSORGFRONT
 10
0.0
 20
0.0
 30
0.0
  9
$UCSORGBACK
 10
0.0
 20
0.0
 30
0.0
  9
$PUCSBASE
  2

  9
$PUCSNAME
  2

  9
$PUCSORG
 10
0.0
 20
0.0
 30
0.0
  9
$PUCSXDIR
 10
1.0
 20
0.0
 30
0.0
  9
$PUCSYDIR
 10
0.0
 20
1.0
 30
0.0
  9
$PUCSORTHOREF
  2

  9
$PUCSORTHOVIEW
 70
     0
  9
$PUCSORGTOP
 10
0.0
 20
0.0
 30
0.0
  9
$PUCSORGBOTTOM
 10
0.0
 20
0.0
 30
0.0
  9
$PUCSORGLEFT
 10
0.0
 20
0.0
 30
0.0
  9
$PUCSORGRIGHT
 10
0.0
 20
0.0
 30
0.0
  9
$PUCSORGFRONT
 10
0.0
 20
0.0
 30
0.0
  9
$PUCSORGBACK
 10
0.0
 20
0.0
 30
0.0
  9
$USERI1
 70
     0
  9
$USERI2
 70
     0
  9
$USERI3
 70
     0
  9
$USERI4
 70
     0
  9
$USERI5
 70
     0
  9
$USERR1
 40
0.0
  9
$USERR2
 40
0.0
  9
$USERR3
 40
0.0
  9
$USERR4
 40
0.0
  9
$USERR5
 40
0.0
  9
$WORLDVIEW
 70
     1
  9
$SHADEDGE
 70
     3
  9
$SHADEDIF
 70
    70
  9
$TILEMODE
 70
     1
  9
$MAXACTVP
 70
    16
  9
$PINSBASE
 10
0.0
 20
0.0
 30
0.0
  9
$PLIMCHECK
 70
     0
  9
$PEXTMIN
 10
-1.000000E+20
 20
-1.000000E+20
 30
-1.000000E+20
  9
$PEXTMAX
 10
-1.000000E+20
 20
-1.000000E+20
 30
-1.000000E+20
  9
$PLIMMIN
 10
0.0
 20
0.0
  9
$PLIMMAX
 10
12.0
 20
9.0
  9
$UNITMODE
 70
     0
  9
$VISRETAIN
 70
     0
  9
$PLINEGEN
 70
     1
  9
$PSLTSCALE
 70
     0
  9
$TREEDEPTH
 70
  3020
  9
$CMLSTYLE
  2
Standard
  9
$CMLJUST
 70
     0
  9
$CMLSCALE
 40
1.0
  9
$PROXYGRAPHICS
 70
     0
  9
$MEASUREMENT
 70
     0
  9
$CELWEIGHT
370
     0
  9
$ENDCAPS
280
     0
  9
$JOINSTYLE
280
     0
  9
$LWDISPLAY
290
     0
  9
$INSUNITS
 70
     0
  9
$HYPERLINKBASE
  1

  9
$XEDIT
290
     1
  9
$CEPSNTYPE
380
     0
  9
$PSTYLEMODE
290
     1
  9
$FINGERPRINTGUID
  2

  9
$VERSIONGUID
  2

  9
$EXTNAMES
290
     1
  9
$PSVPSCALE
 40
0.0
  0
ENDSEC
  0
SECTION
  2
CLASSES
  0
CLASS
  1
LWPOLYLINE
  2
AcDbPolyline
  3
AutoCAD 2000
 90
        0
280
     0
281
     1
  0
CLASS
  1
IMAGE
  2
AcDbRasterImage
  3
ISM
 90
    32895
280
     0
281
     1
  0
CLASS
  1
OLE2FRAME
  2
AcDbOle2Frame
  3
AutoCAD 2000
 90
    32768
280
     0
281
     1
  0
CLASS
  1
HATCH
  2
AcDbHatch
  3
AutoCAD 2000
 90
    32768
280
     0
281
     1
  0
CLASS
  1
DICTIONARYVAR
  2
AcDbDictionaryVar
  3
AutoCAD 2000
 90
    32768
280
     0
281
     0
  0
CLASS
  1
RASTERVARIABLES
  2
AcDbRasterVariables
  3
ISM
 90
    32768
280
     0
281
     0
  0
CLASS
  1
IMAGEDEF
  2
AcDbRasterImageDef
  3
ISM
 90
    32768
280
     0
281
     0
  0
CLASS
  1
IMAGEDEF_REACTOR
  2
AcDbRasterImageDefReactor
  3
ISM
 90
    32769
280
     0
281
     0
  0
CLASS
  1
IDBUFFER
  2
AcDbIdBuffer
  3
AutoCAD 2000
 90
    32768
280
     0
281
     0
  0
CLASS
  1
SPATIAL_FILTER
  2
AcDbSpatialFilter
  3
AutoCAD 2000
 90
    32768
280
     0
281
     0
  0
CLASS
  1
XRECORD
  2
AcDbXrecord
  3
AutoCAD 2000
 90
    32768
280
     0
281
     0
  0
CLASS
  1
SORTENTSTABLE
  2
AcDbSortentsTable
  3
AutoCAD 2000
 90
    32768
280
     0
281
     0
  0
CLASS
  1
LAYER_INDEX
  2
AcDbLayerIndex
  3
AutoCAD 2000
 90
    32768
280
     0
281
     0
  0
CLASS
  1
SPATIAL_INDEX
  2
AcDbSpatialIndex
  3
AutoCAD 2000
 90
    32768
280
     0
281
     0
  0
CLASS
  1
OBJECT_PTR
  2
CAseDLPNTableRecord
  3
"ASE-LPNTableRecord"
 90
    32769
280
     0
281
     0
  0
CLASS
  1
LAYOUT
  2
AcDbLayout
  3
AutoCAD 2000
 90
        0
280
     0
281
     0
  0
CLASS
  1
PLOTSETTINGS
  2
AcDbPlotSettings
  3
AutoCAD 2000
 90
    32768
280
     0
281
     0
  0
CLASS
  1
ACDBDICTIONARYWDFLT
  2
AcDbDictionaryWithDefault
  3
AutoCAD 2000
 90
        0
280
     0
281
     0
  0
CLASS
  1
ACDBPLACEHOLDER
  2
AcDbPlaceHolder
  3
AutoCAD 2000
 90
        0
280
     0
281
     0
  0
CLASS
  1
VBA_PROJECT
  2
AcDbVbaProject
  3
acadvba
 90
    32768
280
     0
281
     0
  0
CLASS
  1
WIPEOUT
  2
AcDbWipeout
  3
WipeOut|AutoCAD Express Tool|expresstools@autodesk.com
 90
    32895
280
     0
281
     1
  0
CLASS
  1
WIPEOUTVARIABLES
  2
AcDbWipeoutVariables
  3
WipeOut|AutoCAD Express Tool|expresstools@autodesk.com
 90
        0
280
     0
281
     0
  0
CLASS
  1
RTEXT
  2
RText
  3
RText|AutoCAD Express Tool|expresstools@autodesk.com
 90
    32768
280
     0
281
     1
  0
CLASS
  1
ARCALIGNEDTEXT
  2
AcDbArcAlignedText
  3
ATEXT|AutoCAD Express Tool|expresstools@autodesk.com
 90
    32768
280
     0
281
     1
  0
ENDSEC
  0
SECTION
  2
TABLES
  0
TABLE
  2
VPORT
  5
7
100
AcDbSymbolTable
 70
     1
  0
VPORT
  5
132
100
AcDbSymbolTableRecord
100
AcDbViewportTableRecord
  2
*ACTIVE
 70
     0
 10
0.0
 20
0.0
 11
1.0
 21
1.0
 12
0.0
 22
0.0
 13
0.0
 23
0.0
 14
0.0
 24
0.0
 15
0.0
 25
0.0
 16
0.0
 26
0.0
 36
1.0
 17
-536.937889
 27
1382.42895
 37
0.0
 40
998.5527
 41
1.505562
 42
50.0
 43
4500.0
 44
-4500.0
 50
0.0
 51
0.0
 71
    22
 72
   100
 73
     1
 74
     0
 75
     0
 76
     0
 77
     0
 78
     0
281
     0
 65
     0
110
0.0
120
0.0
130
0.0
111
0.0
121
0.0
131
0.0
112
0.0
122
0.0
132
0.0
345
0
346
0
 79
     0
146
0.0
  0
ENDTAB
  0
TABLE
  2
LTYPE
  5
4
100
AcDbSymbolTable
 70
    10
  0
LTYPE
  5
11
100
AcDbSymbolTableRecord
100
AcDbLinetypeTableRecord
  2
ByBlock
 70
    64
  3

 72
    65
 73
     0
 40
0.0
  0
LTYPE
  5
12
100
AcDbSymbolTableRecord
100
AcDbLinetypeTableRecord
  2
ByLayer
 70
    64
  3

 72
    65
 73
     0
 40
0.0
  0
LTYPE
  5
13
100
AcDbSymbolTableRecord
100
AcDbLinetypeTableRecord
  2
Continuous
 70
    64
  3
Solid line
 72
    65
 73
     0
 40
0.0
  0
LTYPE
  5
29
100
AcDbSymbolTableRecord
100
AcDbLinetypeTableRecord
  2
DOT
 70
    64
  3
. . . . . . . . . . . . . . . . . . . . . . . . . . . . . . . . .
 72
    65
 73
     2
 40
0.25
 49
0.0
 74
     0
 49
-0.25
 74
     0
  0
LTYPE
  5
2A
100
AcDbSymbolTableRecord
100
AcDbLinetypeTableRecord
  2
HIDDEN
 70
    64
  3
__ __ __ __ __ __ __ __ __ __ __ __ __ __ __ __ __ __ __ __ __ 
 72
    65
 73
     2
 40
0.375
 49
0.25
 74
     0
 49
-0.125
 74
     0
  0
LTYPE
  5
2B
100
AcDbSymbolTableRecord
100
AcDbLinetypeTableRecord
  2
DASHED
 70
    64
  3
__ __ __ __ __ __ __ __ __ __ __ __ __ __ __ __ __ __ __ __ __
 72
    65
 73
     2
 40
0.75
 49
0.5
 74
     0
 49
-0.25
 74
     0
  0
LTYPE
  5
2C
100
AcDbSymbolTableRecord
100
AcDbLinetypeTableRecord
  2
DASHDOT
 70
    64
  3
__ . __ . __ . __ . __ . __ . __ . __ . __ . __ . __ . __ . _
 72
    65
 73
     4
 40
1.0
 49
0.5
 74
     0
 49
-0.25
 74
     0
 49
0.0
 74
     0
 49
-0.25
 74
     0
  0
LTYPE
  5
2D
100
AcDbSymbolTableRecord
100
AcDbLinetypeTableRecord
  2
DIVIDE
 70
    64
  3
____ . . ____ . . ____ . . ____ . . ____ . . ____ . . ____ . .
 72
    65
 73
     6
 40
1.25
 49
0.5
 74
     0
 49
-0.25
 74
     0
 49
0.0
 74
     0
 49
-0.25
 74
     0
 49
0.0
 74
     0
 49
-0.25
 74
     0
  0
LTYPE
  5
2E
100
AcDbSymbolTableRecord
100
AcDbLinetypeTableRecord
  2
CENTER
 70
    64
  3
____ _ ____ _ ____ _ ____ _ ____ _ ____ _ ____ _ ____ _ ____ _
 72
    65
 73
     4
 40
2.0
 49
1.25
 74
     0
 49
-0.25
 74
     0
 49
0.25
 74
     0
 49
-0.25
 74
     0
  0
LTYPE
  5
BC
100
AcDbSymbolTableRecord
100
AcDbLinetypeTableRecord
  2
STYLE_03
 70
    64
  3

 72
    65
 73
     2
 40
1.25
 49
1.041641
 74
     0
 49
-0.208359
 74
     0
  0
ENDTAB
  0
TABLE
  2
LAYER
  5
2
100
AcDbSymbolTable
 70
     3
  0
LAYER
  5
14
100
AcDbSymbolTableRecord
100
AcDbLayerTableRecord
  2
0
 70
     0
 62
     7
  6
Continuous
290
     1
370
     0
390
0
  0
LAYER
  5
31
100
AcDbSymbolTableRecord
100
AcDbLayerTableRecord
  2
KEINE
 70
    64
 62
     7
  6
Continuous
290
     1
370
     0
390
0
  0
LAYER
  5
FB
100
AcDbSymbolTableRecord
100
AcDbLayerTableRecord
  2
1
 70
    64
 62
     7
  6
Continuous
290
     1
370
     0
390
0
  0
ENDTAB
  0
TABLE
  2
STYLE
  5
3
100
AcDbSymbolTable
 70
     2
  0
STYLE
  5
17
100
AcDbSymbolTableRecord
100
AcDbTextStyleTableRecord
  2
Standard
 70
     0
 40
0.0
 41
1.0
 50
0.0
 71
     0
 42
0.0
  3
txt
  4

  0
STYLE
  5
59
100
AcDbSymbolTableRecord
100
AcDbTextStyleTableRecord
  2
ROMANS
 70
     0
 40
0.0
 41
1.0
 50
0.0
 71
     0
 42
0.2
  3
ROMANS
  4

  0
ENDTAB
  0
TABLE
  2
VIEW
  5
5
100
AcDbSymbolTable
 70
     0
  0
ENDTAB
  0
TABLE
  2
UCS
  5
6
100
AcDbSymbolTable
 70
     0
  0
ENDTAB
  0
TABLE
  2
APPID
  5
8
100
AcDbSymbolTable
 70
     1
  0
APPID
  5
16
100
AcDbSymbolTableRecord
100
AcDbRegAppTableRecord
  2
ACAD
 70
     0
  0
ENDTAB
  0
TABLE
  2
DIMSTYLE
  5
9
100
AcDbSymbolTable
 70
     1
100
AcDbDimStyleTable
 71
     0
  0
DIMSTYLE
105
18
100
AcDbSymbolTableRecord
100
AcDbDimStyleTableRecord
  2
Standard
 70
     0
  3

  4

 40
1.0
 41
0.18
 42
0.0625
 43
0.38
 44
0.18
 45
0.0
 46
0.0
 47
0.0
 48
0.0
 71
     0
 72
     0
 73
     1
 74
     1
 75
     0
 76
     0
 77
     0
 78
     0
 79
     0
140
0.18
141
0.09
142
0.0
143
25.4
144
1.0
145
0.0
146
1.0
147
0.09
148
0.0
170
     0
171
     2
172
     0
173
     0
174
     0
175
     0
176
     0
177
     0
178
     0
179
     0
271
     4
272
     4
273
     2
274
     2
275
     0
276
     0
277
     2
278
    46
279
     0
280
     0
281
     0
282
     0
283
     1
284
     0
285
     0
286
     0
288
     0
340
17
341
0
342
0
343
0
344
0
371
    -2
372
    -2
  0
ENDTAB
  0
TABLE
  2
BLOCK_RECORD
  5
1
100
AcDbSymbolTable
 70
    21
  0
BLOCK_RECORD
  5
A
100
AcDbSymbolTableRecord
100
AcDbBlockTableRecord
  2
*MODEL_SPACE
340
20
  0
BLOCK_RECORD
  5
B
100
AcDbSymbolTableRecord
100
AcDbBlockTableRecord
  2
*PAPER_SPACE
340
21
  0
BLOCK_RECORD
  5
32
100
AcDbSymbolTableRecord
100
AcDbBlockTableRecord
  2
*M0
340
0
  0
BLOCK_RECORD
  5
39
100
AcDbSymbolTableRecord
100
AcDbBlockTableRecord
  2
*M1
340
0
  0
BLOCK_RECORD
  5
40
100
AcDbSymbolTableRecord
100
AcDbBlockTableRecord
  2
*M2
340
0
  0
BLOCK_RECORD
  5
48
100
AcDbSymbolTableRecord
100
AcDbBlockTableRecord
  2
*M3
340
0
  0
BLOCK_RECORD
  5
5D
100
AcDbSymbolTableRecord
100
AcDbBlockTableRecord
  2
*M4
340
0
  0
BLOCK_RECORD
  5
69
100
AcDbSymbolTableRecord
100
AcDbBlockTableRecord
  2
*M5
340
0
  0
BLOCK_RECORD
  5
76
100
AcDbSymbolTableRecord
100
AcDbBlockTableRecord
  2
*M6
340
0
  0
BLOCK_RECORD
  5
83
100
AcDbSymbolTableRecord
100
AcDbBlockTableRecord
  2
*M7
340
0
  0
BLOCK_RECORD
  5
8B
100
AcDbSymbolTableRecord
100
AcDbBlockTableRecord
  2
*M8
340
0
  0
BLOCK_RECORD
  5
93
100
AcDbSymbolTableRecord
100
AcDbBlockTableRecord
  2
*M9
340
0
  0
BLOCK_RECORD
  5
9B
100
AcDbSymbolTableRecord
100
AcDbBlockTableRecord
  2
*M10
340
0
  0
BLOCK_RECORD
  5
A3
100
AcDbSymbolTableRecord
100
AcDbBlockTableRecord
  2
*M11
340
0
  0
BLOCK_RECORD
  5
AB
100
AcDbSymbolTableRecord
100
AcDbBlockTableRecord
  2
*M12
340
0
  0
BLOCK_RECORD
  5
B4
100
AcDbSymbolTableRecord
100
AcDbBlockTableRecord
  2
*M13
340
0
  0
BLOCK_RECORD
  5
C7
100
AcDbSymbolTableRecord
100
AcDbBlockTableRecord
  2
*M14
340
0
  0
BLOCK_RECORD
  5
CE
100
AcDbSymbolTableRecord
100
AcDbBlockTableRecord
  2
*M15
340
0
  0
BLOCK_RECORD
  5
D5
100
AcDbSymbolTableRecord
100
AcDbBlockTableRecord
  2
*M16
340
0
  0
BLOCK_RECORD
  5
DC
100
AcDbSymbolTableRecord
100
AcDbBlockTableRecord
  2
*M17
340
0
  0
BLOCK_RECORD
  5
E3
100
AcDbSymbolTableRecord
100
AcDbBlockTableRecord
  2
*M18
340
0
  0
BLOCK_RECORD
  5
EA
100
AcDbSymbolTableRecord
100
AcDbBlockTableRecord
  2
*M19
340
0
  0
BLOCK_RECORD
  5
F1
100
AcDbSymbolTableRecord
100
AcDbBlockTableRecord
  2
*M20
340
0
  0
ENDTAB
  0
ENDSEC
  0
SECTION
  2
BLOCKS
  0
BLOCK
  5
D
100
AcDbEntity
  8
0
100
AcDbBlockBegin
  2
*MODEL_SPACE
 70
     0
 10
0.0
 20
0.0
 30
0.0
  3
*MODEL_SPACE
  1

  0
ENDBLK
  5
E
100
AcDbEntity
  8
0
100
AcDbBlockEnd
  0
BLOCK
  5
F
100
AcDbEntity
 67
     1
  8
0
100
AcDbBlockBegin
  2
*PAPER_SPACE
 70
     0
 10
0.0
 20
0.0
 30
0.0
  3
*PAPER_SPACE
  1

  0
ENDBLK
  5
10
100
AcDbEntity
 67
     1
  8
0
100
AcDbBlockEnd
  0
BLOCK
  5
33
100
AcDbEntity
  8
KEINE
370
     0
  6
Continuous
 62
     7
100
AcDbBlockBegin
  2
*M0
 70
     1
 10
0.0
 20
0.0
 30
0.0
  3
*M0
  1

  0
SPLINE
  5
34
100
AcDbEntity
  8
KEINE
370
     0
  6
Continuous
 62
     7
100
AcDbSpline
210
0.0
220
0.0
230
1.0
 70
     8
 71
     2
 72
    17
 73
    14
 74
     0
 42
0.0
 43
0.0
 12
1.0
 22
-0.0000000000000566
 32
0.0
 13
1.0
 23
-0.0000000000000283
 33
0.0
 40
0.0
 40
0.0
 40
0.0
 40
0.0833333335273589
 40
0.1666666665890565
 40
0.2500000001164153
 40
0.3333333331781129
 40
0.4166666667054718
 40
0.5000000002328306
 40
0.5833333332945282
 40
0.6666666668218871
 40
0.7499999998835847
 40
0.8333333334109435
 40
0.9166666664726412
 40
1.0
 40
1.0
 40
1.0
 10
-437.26391340067744
 20
-206.65475186925869
 30
0.0
 10
-436.2591039277321
 20
-206.65475186925869
 30
0.0
 10
-434.51872287057097
 20
-205.64994239631324
 30
0.0
 10
-433.51391340067744
 20
-203.90956133915211
 30
0.0
 10
-433.51391340067744
 20
-201.89994239631324
 30
0.0
 10
-434.51872287057097
 20
-200.15956133915211
 30
0.0
 10
-436.2591039277321
 20
-199.15475186925869
 30
0.0
 10
-438.26872287057097
 20
-199.15475186925869
 30
0.0
 10
-440.0091039277321
 20
-200.15956133915211
 30
0.0
 10
-441.01391340067744
 20
-201.89994239631324
 30
0.0
 10
-441.01391340067744
 20
-203.90956133915211
 30
0.0
 10
-440.0091039277321
 20
-205.64994239631324
 30
0.0
 10
-438.26872287057097
 20
-206.65475186925869
 30
0.0
 10
-437.26391340067744
 20
-206.65475186925869
 30
0.0
  0
LINE
  5
35
100
AcDbEntity
  8
KEINE
370
     0
  6
Continuous
 62
     7
100
AcDbLine
 10
-432.263913
 20
-202.904752
 30
0.0
 11
-442.263913
 21
-202.904752
 31
0.0
  0
LINE
  5
36
100
AcDbEntity
  8
KEINE
370
     0
  6
Continuous
 62
     7
100
AcDbLine
 10
-437.263913
 20
-207.904752
 30
0.0
 11
-437.263913
 21
-197.904752
 31
0.0
  0
ENDBLK
  5
37
100
AcDbEntity
  8
KEINE
370
     0
  6
Continuous
 62
     7
100
AcDbBlockEnd
  0
BLOCK
  5
3A
100
AcDbEntity
  8
KEINE
370
     0
  6
Continuous
 62
     7
100
AcDbBlockBegin
  2
*M1
 70
     1
 10
0.0
 20
0.0
 30
0.0
  3
*M1
  1

  0
SPLINE
  5
3B
100
AcDbEntity
  8
KEINE
370
     0
  6
Continuous
 62
     7
100
AcDbSpline
210
0.0
220
0.0
230
1.0
 70
     8
 71
     2
 72
    17
 73
    14
 74
     0
 42
0.0
 43
0.0
 12
1.0
 22
-0.0000000000000283
 32
0.0
 13
1.0
 23
0.0
 33
0.0
 40
0.0
 40
0.0
 40
0.0
 40
0.0833333335273589
 40
0.1666666665890565
 40
0.2500000001164153
 40
0.3333333331781129
 40
0.4166666667054718
 40
0.5000000002328306
 40
0.5833333332945282
 40
0.6666666668218871
 40
0.7499999998835847
 40
0.8333333334109435
 40
0.9166666664726412
 40
1.0
 40
1.0
 40
1.0
 10
-424.83520022888877
 20
-204.04379631031202
 30
0.0
 10
-423.83039075594343
 20
-204.04379631031202
 30
0.0
 10
-422.09000970183411
 20
-203.0389868404186
 30
0.0
 10
-421.08520022888877
 20
-201.2986057832577
 30
0.0
 10
-421.08520022888877
 20
-199.2889868404186
 30
0.0
 10
-422.09000970183411
 20
-197.5486057832577
 30
0.0
 10
-423.83039075594343
 20
-196.54379631031202
 30
0.0
 10
-425.84000970183411
 20
-196.54379631031202
 30
0.0
 10
-427.58039075594343
 20
-197.5486057832577
 30
0.0
 10
-428.58520022888877
 20
-199.2889868404186
 30
0.0
 10
-428.58520022888877
 20
-201.2986057832577
 30
0.0
 10
-427.58039075594343
 20
-203.0389868404186
 30
0.0
 10
-425.84000970183411
 20
-204.04379631031202
 30
0.0
 10
-424.83520022888877
 20
-204.04379631031202
 30
0.0
  0
LINE
  5
3C
100
AcDbEntity
  8
KEINE
370
     0
  6
Continuous
 62
     7
100
AcDbLine
 10
-419.8352
 20
-200.293796
 30
0.0
 11
-429.8352
 21
-200.293796
 31
0.0
  0
LINE
  5
3D
100
AcDbEntity
  8
KEINE
370
     0
  6
Continuous
 62
     7
100
AcDbLine
 10
-424.8352
 20
-205.293796
 30
0.0
 11
-424.8352
 21
-195.293796
 31
0.0
  0
ENDBLK
  5
3E
100
AcDbEntity
  8
KEINE
370
     0
  6
Continuous
 62
     7
100
AcDbBlockEnd
  0
BLOCK
  5
41
100
AcDbEntity
  8
KEINE
370
     0
  6
Continuous
 62
     7
100
AcDbBlockBegin
  2
*M2
 70
     1
 10
0.0
 20
0.0
 30
0.0
  3
*M2
  1

  0
LINE
  5
42
100
AcDbEntity
  8
KEINE
370
     0
  6
Continuous
 62
     7
100
AcDbLine
 10
-871.816558
 20
-147.722293
 30
0.0
 11
-871.816558
 21
-114.58593
 31
0.0
  0
LINE
  5
43
100
AcDbEntity
  8
KEINE
370
     0
  6
Continuous
 62
     7
100
AcDbLine
 10
-882.862012
 20
-147.722293
 30
0.0
 11
-882.862012
 21
-114.58593
 31
0.0
  0
LINE
  5
44
100
AcDbEntity
  8
KEINE
370
     0
  6
Continuous
 62
     7
100
AcDbLine
 10
-893.907467
 20
-136.676839
 30
0.0
 11
-860.771103
 21
-136.676839
 31
0.0
  0
LINE
  5
45
100
AcDbEntity
  8
KEINE
370
     0
  6
Continuous
 62
     7
100
AcDbLine
 10
-893.907467
 20
-125.631384
 30
0.0
 11
-860.771103
 21
-125.631384
 31
0.0
  0
ENDBLK
  5
46
100
AcDbEntity
  8
KEINE
370
     0
  6
Continuous
 62
     7
100
AcDbBlockEnd
  0
BLOCK
  5
49
100
AcDbEntity
  8
KEINE
370
     0
  6
Continuous
 62
     7
100
AcDbBlockBegin
  2
*M3
 70
     1
 10
0.0
 20
0.0
 30
0.0
  3
*M3
  1

  0
LWPOLYLINE
  5
4A
100
AcDbEntity
  8
KEINE
370
     0
  6
Continuous
 62
     7
100
AcDbPolyline
 90
        4
 70
     1
 10
-647.339238
 20
-416.676859
 10
-637.339238
 20
-416.676859
 10
-637.339238
 20
-426.676859
 10
-647.339238
 20
-426.676859
210
0.0
220
0.0
230
1.0
  0
LWPOLYLINE
  5
4B
100
AcDbEntity
  8
KEINE
370
     0
  6
Continuous
 62
     7
100
AcDbPolyline
 90
        4
 70
     1
 10
-637.339238
 20
-416.676859
 10
-627.339238
 20
-416.676859
 10
-627.339238
 20
-426.676859
 10
-637.339238
 20
-426.676859
210
0.0
220
0.0
230
1.0
  0
LWPOLYLINE
  5
4C
100
AcDbEntity
  8
KEINE
370
     0
  6
Continuous
 62
     7
100
AcDbPolyline
 90
        4
 70
     1
 10
-627.339238
 20
-416.676859
 10
-617.339238
 20
-416.676859
 10
-617.339238
 20
-426.676859
 10
-627.339238
 20
-426.676859
210
0.0
220
0.0
230
1.0
  0
LWPOLYLINE
  5
4D
100
AcDbEntity
  8
KEINE
370
     0
  6
Continuous
 62
     7
100
AcDbPolyline
 90
        4
 70
     1
 10
-617.339238
 20
-416.676859
 10
-607.339238
 20
-416.676859
 10
-607.339238
 20
-426.676859
 10
-617.339238
 20
-426.676859
210
0.0
220
0.0
230
1.0
  0
LWPOLYLINE
  5
4E
100
AcDbEntity
  8
KEINE
370
     0
  6
Continuous
 62
     7
100
AcDbPolyline
 90
        4
 70
     1
 10
-607.339238
 20
-416.676859
 10
-597.339238
 20
-416.676859
 10
-597.339238
 20
-426.676859
 10
-607.339238
 20
-426.676859
210
0.0
220
0.0
230
1.0
  0
LWPOLYLINE
  5
4F
100
AcDbEntity
  8
KEINE
370
     0
  6
Continuous
 62
     7
100
AcDbPolyline
 90
        4
 70
     1
 10
-597.339238
 20
-416.676859
 10
-587.339238
 20
-416.676859
 10
-587.339238
 20
-426.676859
 10
-597.339238
 20
-426.676859
210
0.0
220
0.0
230
1.0
  0
LWPOLYLINE
  5
50
100
AcDbEntity
  8
KEINE
370
     0
  6
Continuous
 62
     7
100
AcDbPolyline
 90
        4
 70
     1
 10
-587.339238
 20
-416.676859
 10
-577.339238
 20
-416.676859
 10
-577.339238
 20
-426.676859
 10
-587.339238
 20
-426.676859
210
0.0
220
0.0
230
1.0
  0
LWPOLYLINE
  5
51
100
AcDbEntity
  8
KEINE
370
     0
  6
Continuous
 62
     7
100
AcDbPolyline
 90
        4
 70
     1
 10
-577.339238
 20
-416.676859
 10
-567.339238
 20
-416.676859
 10
-567.339238
 20
-426.676859
 10
-577.339238
 20
-426.676859
210
0.0
220
0.0
230
1.0
  0
LWPOLYLINE
  5
52
100
AcDbEntity
  8
KEINE
370
     0
  6
Continuous
 62
     7
100
AcDbPolyline
 90
        4
 70
     1
 10
-567.339238
 20
-416.676859
 10
-557.339238
 20
-416.676859
 10
-557.339238
 20
-426.676859
 10
-567.339238
 20
-426.676859
210
0.0
220
0.0
230
1.0
  0
LWPOLYLINE
  5
53
100
AcDbEntity
  8
KEINE
370
     0
  6
Continuous
 62
     7
100
AcDbPolyline
 90
        4
 70
     1
 10
-557.339238
 20
-416.676859
 10
-547.339238
 20
-416.676859
 10
-547.339238
 20
-426.676859
 10
-557.339238
 20
-426.676859
210
0.0
220
0.0
230
1.0
  0
LWPOLYLINE
  5
54
100
AcDbEntity
  8
KEINE
370
     0
  6
Continuous
 62
     7
100
AcDbPolyline
 90
        4
 70
     1
 10
-547.339238
 20
-416.676859
 10
-447.339238
 20
-416.676859
 10
-447.339238
 20
-426.676859
 10
-547.339238
 20
-426.676859
210
0.0
220
0.0
230
1.0
  0
LWPOLYLINE
  5
55
100
AcDbEntity
  8
KEINE
370
     0
  6
Continuous
 62
     7
100
AcDbPolyline
 90
        4
 70
     1
 10
-447.339238
 20
-416.676859
 10
-347.339238
 20
-416.676859
 10
-347.339238
 20
-426.676859
 10
-447.339238
 20
-426.676859
210
0.0
220
0.0
230
1.0
  0
LWPOLYLINE
  5
56
100
AcDbEntity
  8
KEINE
370
     0
  6
Continuous
 62
     7
100
AcDbPolyline
 90
        4
 70
     1
 10
-347.339238
 20
-416.676859
 10
-247.339238
 20
-416.676859
 10
-247.339238
 20
-426.676859
 10
-347.339238
 20
-426.676859
210
0.0
220
0.0
230
1.0
  0
LWPOLYLINE
  5
57
100
AcDbEntity
  8
KEINE
370
     0
  6
Continuous
 62
     7
100
AcDbPolyline
 90
        4
 70
     1
 10
-247.339238
 20
-416.676859
 10
-147.339238
 20
-416.676859
 10
-147.339238
 20
-426.676859
 10
-247.339238
 20
-426.676859
210
0.0
220
0.0
230
1.0
  0
LWPOLYLINE
  5
58
100
AcDbEntity
  8
KEINE
370
     0
  6
Continuous
 62
     7
100
AcDbPolyline
 90
        4
 70
     1
 10
-147.339238
 20
-416.676859
 10
-47.339238
 20
-416.676859
 10
-47.339238
 20
-426.676859
 10
-147.339238
 20
-426.676859
210
0.0
220
0.0
230
1.0
  0
TEXT
  5
5A
100
AcDbEntity
  8
KEINE
370
     0
  6
Continuous
 62
     7
100
AcDbText
 10
-646.2828
 20
-412.2252
 30
0.0
 40
5.115848
  1
10
  7
ROMANS
 11
-646.2828
 21
-407.1094
 31
0.0
210
0.0
220
0.0
230
1.0
100
AcDbText
 73
     3
  0
ENDBLK
  5
5B
100
AcDbEntity
  8
KEINE
370
     0
  6
Continuous
 62
     7
100
AcDbBlockEnd
  0
BLOCK
  5
5E
100
AcDbEntity
  8
KEINE
370
     0
  6
Continuous
 62
     7
100
AcDbBlockBegin
  2
*M4
 70
     1
 10
0.0
 20
0.0
 30
0.0
  3
*M4
  1

  0
CIRCLE
  5
5F
100
AcDbEntity
  8
KEINE
370
     0
  6
Continuous
 62
     7
100
AcDbCircle
 10
-897.339285
 20
-206.998312
 30
0.0
 40
15.0
210
0.0
220
0.0
230
1.0
  0
LINE
  5
60
100
AcDbEntity
  8
KEINE
370
     0
  6
Continuous
 62
     7
100
AcDbLine
 10
-877.339285
 20
-206.998312
 30
0.0
 11
-917.339285
 21
-206.998312
 31
0.0
  0
LINE
  5
61
100
AcDbEntity
  8
KEINE
370
     0
  6
Continuous
 62
     7
100
AcDbLine
 10
-897.339285
 20
-226.998312
 30
0.0
 11
-897.339285
 21
-186.998312
 31
0.0
  0
ENDBLK
  5
62
100
AcDbEntity
  8
KEINE
370
     0
  6
Continuous
 62
     7
100
AcDbBlockEnd
  0
BLOCK
  5
6A
100
AcDbEntity
  8
KEINE
370
     0
  6
Continuous
 62
     7
100
AcDbBlockBegin
  2
*M5
 70
     1
 10
0.0
 20
0.0
 30
0.0
  3
*M5
  1

  0
LINE
  5
6B
100
AcDbEntity
  8
KEINE
370
     0
  6
Continuous
 62
     7
100
AcDbLine
 10
-561.080664
 20
254.972994
 30
0.0
 11
-611.451197
 21
280.348564
 31
0.0
  0
LINE
  5
6C
100
AcDbEntity
  8
KEINE
370
     0
  6
Continuous
 62
     7
100
AcDbLine
 10
-568.251767
 20
272.134691
 30
0.0
 11
-573.670998
 21
261.42806
 31
0.0
  0
LINE
  5
6D
100
AcDbEntity
  8
KEINE
370
     0
  6
Continuous
 62
     7
100
AcDbLine
 10
-578.598481
 20
263.922138
 30
0.0
 11
-573.179251
 21
274.628769
 31
0.0
  0
LINE
  5
6E
100
AcDbEntity
  8
KEINE
370
     0
  6
Continuous
 62
     7
100
AcDbLine
 10
-596.361896
 20
272.845881
 30
0.0
 11
-590.975013
 21
283.568824
 31
0.0
  0
LINE
  5
6F
100
AcDbEntity
  8
KEINE
370
     0
  6
Continuous
 62
     7
100
AcDbLine
 10
-606.040222
 20
291.059369
 30
0.0
 11
-611.451197
 21
280.348564
 31
0.0
  0
LINE
  5
70
100
AcDbEntity
  8
KEINE
370
     0
  6
Continuous
 62
     7
100
AcDbLine
 10
-555.702049
 20
265.700086
 30
0.0
 11
-561.080664
 21
254.972994
 31
0.0
  0
TEXT
  5
71
100
AcDbEntity
  8
KEINE
370
     0
  6
Continuous
 62
     7
100
AcDbText
 10
-580.3094
 20
250.9311
 30
0.0
 40
5.115848
  1
clip
 50
63.326425
  7
ROMANS
 11
-584.880769
 21
253.227618
 31
0.0
210
0.0
220
0.0
230
1.0
100
AcDbText
 73
     3
  0
TEXT
  5
72
100
AcDbEntity
  8
KEINE
370
     0
  6
Continuous
 62
     7
100
AcDbText
 10
-595.3515
 20
250.2013
 30
0.0
 40
5.115848
  1
fitting
 50
63.326425
  7
ROMANS
 11
-599.922869
 21
252.497818
 31
0.0
210
0.0
220
0.0
230
1.0
100
AcDbText
 73
     3
  0
TEXT
  5
73
100
AcDbEntity
  8
KEINE
370
     0
  6
Continuous
 62
     7
100
AcDbText
 10
-573.3072
 20
237.1812
 30
0.0
 40
5.115848
  1
cutout
 50
63.47916
  7
ROMANS
 11
-577.884675
 21
239.465524
 31
0.0
210
0.0
220
0.0
230
1.0
100
AcDbText
 73
     3
  0
ENDBLK
  5
74
100
AcDbEntity
  8
KEINE
370
     0
  6
Continuous
 62
     7
100
AcDbBlockEnd
  0
BLOCK
  5
77
100
AcDbEntity
  8
KEINE
370
     0
  6
Continuous
 62
     7
100
AcDbBlockBegin
  2
*M6
 70
     1
 10
0.0
 20
0.0
 30
0.0
  3
*M6
  1

  0
LINE
  5
78
100
AcDbEntity
  8
KEINE
370
     0
  6
Continuous
 62
     7
100
AcDbLine
 10
3.47049
 20
-33.953271
 30
0.0
 11
-2.676669
 21
-44.259213
 31
0.0
  0
LINE
  5
79
100
AcDbEntity
  8
KEINE
370
     0
  6
Continuous
 62
     7
100
AcDbLine
 10
-7.419744
 20
-41.430123
 30
0.0
 11
-1.272585
 21
-31.124181
 31
0.0
  0
LINE
  5
7A
100
AcDbEntity
  8
KEINE
370
     0
  6
Continuous
 62
     7
100
AcDbLine
 10
-31.042573
 20
-13.296378
 30
0.0
 11
-37.431289
 21
-23.454345
 31
0.0
  0
LINE
  5
7B
100
AcDbEntity
  8
KEINE
370
     0
  6
Continuous
 62
     7
100
AcDbLine
 10
57.912604
 20
-67.563379
 30
0.0
 11
51.728314
 21
-77.847082
 31
0.0
  0
TEXT
  5
7C
100
AcDbEntity
  8
KEINE
370
     0
  6
Continuous
 62
     7
100
AcDbText
 10
-10.8243
 20
-57.3508
 30
0.0
 40
5.115848
  1
clip
 50
59.18537
  7
ROMANS
 11
-15.217898
 21
-54.730169
 31
0.0
210
0.0
220
0.0
230
1.0
100
AcDbText
 73
     3
  0
TEXT
  5
7D
100
AcDbEntity
  8
KEINE
370
     0
  6
Continuous
 62
     7
100
AcDbText
 10
-26.2474
 20
-56.8506
 30
0.0
 40
5.115848
  1
fitting
 50
59.18537
  7
ROMANS
 11
-30.640998
 21
-54.229969
 31
0.0
210
0.0
220
0.0
230
1.0
100
AcDbText
 73
     3
  0
TEXT
  5
7E
100
AcDbEntity
  8
KEINE
370
     0
  6
Continuous
 62
     7
100
AcDbText
 10
13.0202
 20
-80.4967
 30
0.0
 40
5.115848
  1
cutout
 50
59.18537
  7
ROMANS
 11
8.626602
 21
-77.876069
 31
0.0
210
0.0
220
0.0
230
1.0
100
AcDbText
 73
     3
  0
LINE
  5
7F
100
AcDbEntity
  8
KEINE
370
     0
  6
Continuous
 62
     7
100
AcDbLine
 10
51.728314
 20
-77.847082
 30
0.0
 11
-37.431289
 21
-23.454345
 31
0.0
  0
LINE
  5
80
100
AcDbEntity
  8
KEINE
370
     0
  6
Continuous
 62
     7
100
AcDbLine
 10
-18.347683
 20
-20.9395
 30
0.0
 11
-24.494842
 21
-31.245441
 31
0.0
  0
ENDBLK
  5
81
100
AcDbEntity
  8
KEINE
370
     0
  6
Continuous
 62
     7
100
AcDbBlockEnd
  0
BLOCK
  5
84
100
AcDbEntity
  8
KEINE
370
     0
  6
Continuous
 62
     7
100
AcDbBlockBegin
  2
*M7
 70
     1
 10
0.0
 20
0.0
 30
0.0
  3
*M7
  1

  0
LINE
  5
85
100
AcDbEntity
  8
KEINE
370
     0
  6
Continuous
 62
     7
100
AcDbLine
 10
-709.433816
 20
-271.16604
 30
0.0
 11
-729.119369
 21
-244.510879
 31
0.0
  0
LINE
  5
86
100
AcDbEntity
  8
KEINE
370
     0
  6
Continuous
 62
     7
100
AcDbLine
 10
-718.31887
 20
-277.727891
 30
0.0
 11
-738.004422
 21
-251.07273
 31
0.0
  0
LINE
  5
87
100
AcDbEntity
  8
KEINE
370
     0
  6
Continuous
 62
     7
100
AcDbLine
 10
-733.765775
 20
-275.404688
 30
0.0
 11
-707.110613
 21
-255.719136
 31
0.0
  0
LINE
  5
88
100
AcDbEntity
  8
KEINE
370
     0
  6
Continuous
 62
     7
100
AcDbLine
 10
-740.327625
 20
-266.519635
 30
0.0
 11
-713.672464
 21
-246.834082
 31
0.0
  0
ENDBLK
  5
89
100
AcDbEntity
  8
KEINE
370
     0
  6
Continuous
 62
     7
100
AcDbBlockEnd
  0
BLOCK
  5
8C
100
AcDbEntity
  8
KEINE
370
     0
  6
Continuous
 62
     7
100
AcDbBlockBegin
  2
*M8
 70
     1
 10
0.0
 20
0.0
 30
0.0
  3
*M8
  1

  0
LINE
  5
8D
100
AcDbEntity
  8
KEINE
370
     0
  6
Continuous
 62
     7
100
AcDbLine
 10
-407.108405
 20
-127.68619
 30
0.0
 11
-409.783236
 21
-94.657961
 31
0.0
  0
LINE
  5
8E
100
AcDbEntity
  8
KEINE
370
     0
  6
Continuous
 62
     7
100
AcDbLine
 10
-418.117814
 20
-128.5778
 30
0.0
 11
-420.792646
 21
-95.549572
 31
0.0
  0
LINE
  5
8F
100
AcDbEntity
  8
KEINE
370
     0
  6
Continuous
 62
     7
100
AcDbLine
 10
-430.018834
 20
-118.460001
 30
0.0
 11
-396.990606
 21
-115.78517
 31
0.0
  0
LINE
  5
90
100
AcDbEntity
  8
KEINE
370
     0
  6
Continuous
 62
     7
100
AcDbLine
 10
-430.910445
 20
-107.450592
 30
0.0
 11
-397.882217
 21
-104.77576
 31
0.0
  0
ENDBLK
  5
91
100
AcDbEntity
  8
KEINE
370
     0
  6
Continuous
 62
     7
100
AcDbBlockEnd
  0
BLOCK
  5
94
100
AcDbEntity
  8
KEINE
370
     0
  6
Continuous
 62
     7
100
AcDbBlockBegin
  2
*M9
 70
     1
 10
0.0
 20
0.0
 30
0.0
  3
*M9
  1

  0
LINE
  5
95
100
AcDbEntity
  8
KEINE
370
     0
  6
Continuous
 62
     7
100
AcDbLine
 10
-121.842869
 20
-151.191121
 30
0.0
 11
-117.865943
 21
-118.294273
 31
0.0
  0
LINE
  5
96
100
AcDbEntity
  8
KEINE
370
     0
  6
Continuous
 62
     7
100
AcDbLine
 10
-132.808485
 20
-149.86548
 30
0.0
 11
-128.83156
 21
-116.968631
 31
0.0
  0
LINE
  5
97
100
AcDbEntity
  8
KEINE
370
     0
  6
Continuous
 62
     7
100
AcDbLine
 10
-142.44846
 20
-137.574221
 30
0.0
 11
-109.551611
 21
-141.551147
 31
0.0
  0
LINE
  5
98
100
AcDbEntity
  8
KEINE
370
     0
  6
Continuous
 62
     7
100
AcDbLine
 10
-141.122818
 20
-126.608605
 30
0.0
 11
-108.225969
 21
-130.585531
 31
0.0
  0
ENDBLK
  5
99
100
AcDbEntity
  8
KEINE
370
     0
  6
Continuous
 62
     7
100
AcDbBlockEnd
  0
BLOCK
  5
9C
100
AcDbEntity
  8
KEINE
370
     0
  6
Continuous
 62
     7
100
AcDbBlockBegin
  2
*M10
 70
     1
 10
0.0
 20
0.0
 30
0.0
  3
*M10
  1

  0
LINE
  5
9D
100
AcDbEntity
  8
KEINE
370
     0
  6
Continuous
 62
     7
100
AcDbLine
 10
127.765906
 20
-205.542624
 30
0.0
 11
142.252399
 21
-175.740608
 31
0.0
  0
LINE
  5
9E
100
AcDbEntity
  8
KEINE
370
     0
  6
Continuous
 62
     7
100
AcDbLine
 10
117.831901
 20
-200.713793
 30
0.0
 11
132.318394
 21
-170.911777
 31
0.0
  0
LINE
  5
9F
100
AcDbEntity
  8
KEINE
370
     0
  6
Continuous
 62
     7
100
AcDbLine
 10
112.726727
 20
-185.950957
 30
0.0
 11
142.528742
 21
-200.437449
 31
0.0
  0
LINE
  5
A0
100
AcDbEntity
  8
KEINE
370
     0
  6
Continuous
 62
     7
100
AcDbLine
 10
117.555558
 20
-176.016951
 30
0.0
 11
147.357573
 21
-190.503444
 31
0.0
  0
ENDBLK
  5
A1
100
AcDbEntity
  8
KEINE
370
     0
  6
Continuous
 62
     7
100
AcDbBlockEnd
  0
BLOCK
  5
A4
100
AcDbEntity
  8
KEINE
370
     0
  6
Continuous
 62
     7
100
AcDbBlockBegin
  2
*M11
 70
     1
 10
0.0
 20
0.0
 30
0.0
  3
*M11
  1

  0
LINE
  5
A5
100
AcDbEntity
  8
KEINE
370
     0
  6
Continuous
 62
     7
100
AcDbLine
 10
-441.750849
 20
127.323109
 30
0.0
 11
-426.732864
 21
156.86086
 31
0.0
  0
LINE
  5
A6
100
AcDbEntity
  8
KEINE
370
     0
  6
Continuous
 62
     7
100
AcDbLine
 10
-451.596766
 20
132.329104
 30
0.0
 11
-436.578781
 21
161.866855
 31
0.0
  0
LINE
  5
A7
100
AcDbEntity
  8
KEINE
370
     0
  6
Continuous
 62
     7
100
AcDbLine
 10
-456.436688
 20
147.181016
 30
0.0
 11
-426.898937
 21
132.163031
 31
0.0
  0
LINE
  5
A8
100
AcDbEntity
  8
KEINE
370
     0
  6
Continuous
 62
     7
100
AcDbLine
 10
-451.430693
 20
157.026933
 30
0.0
 11
-421.892942
 21
142.008948
 31
0.0
  0
ENDBLK
  5
A9
100
AcDbEntity
  8
KEINE
370
     0
  6
Continuous
 62
     7
100
AcDbBlockEnd
  0
BLOCK
  5
AC
100
AcDbEntity
  8
KEINE
370
     0
  6
Continuous
 62
     7
100
AcDbBlockBegin
  2
*M12
 70
     1
 10
0.0
 20
0.0
 30
0.0
  3
*M12
  1

  0
CIRCLE
  5
AD
100
AcDbEntity
  8
KEINE
370
     0
  6
Continuous
 62
     7
100
AcDbCircle
 10
-897.339285
 20
213.612498
 30
0.0
 40
15.0
210
0.0
220
0.0
230
1.0
  0
LINE
  5
AE
100
AcDbEntity
  8
KEINE
370
     0
  6
Continuous
 62
     7
100
AcDbLine
 10
-877.339285
 20
213.612498
 30
0.0
 11
-917.339285
 21
213.612498
 31
0.0
  0
LINE
  5
AF
100
AcDbEntity
  8
KEINE
370
     0
  6
Continuous
 62
     7
100
AcDbLine
 10
-897.339285
 20
193.612498
 30
0.0
 11
-897.339285
 21
233.612498
 31
0.0
  0
ENDBLK
  5
B0
100
AcDbEntity
  8
KEINE
370
     0
  6
Continuous
 62
     7
100
AcDbBlockEnd
  0
BLOCK
  5
B5
100
AcDbEntity
  8
KEINE
370
     0
  6
Continuous
 62
     7
100
AcDbBlockBegin
  2
*M13
 70
     1
 10
0.0
 20
0.0
 30
0.0
  3
*M13
  1

  0
CIRCLE
  5
B6
100
AcDbEntity
  8
KEINE
370
     0
  6
Continuous
 62
     7
100
AcDbCircle
 10
-335.358316
 20
154.379131
 30
0.0
 40
15.0
210
0.0
220
0.0
230
1.0
  0
LINE
  5
B7
100
AcDbEntity
  8
KEINE
370
     0
  6
Continuous
 62
     7
100
AcDbLine
 10
-315.358316
 20
154.379131
 30
0.0
 11
-355.358316
 21
154.379131
 31
0.0
  0
LINE
  5
B8
100
AcDbEntity
  8
KEINE
370
     0
  6
Continuous
 62
     7
100
AcDbLine
 10
-335.358316
 20
134.379131
 30
0.0
 11
-335.358316
 21
174.379131
 31
0.0
  0
ENDBLK
  5
B9
100
AcDbEntity
  8
KEINE
370
     0
  6
Continuous
 62
     7
100
AcDbBlockEnd
  0
BLOCK
  5
C8
100
AcDbEntity
  8
KEINE
370
     0
  6
Continuous
 62
     7
100
AcDbBlockBegin
  2
*M14
 70
     1
 10
0.0
 20
0.0
 30
0.0
  3
*M14
  1

  0
SPLINE
  5
C9
100
AcDbEntity
  8
KEINE
370
     0
  6
Continuous
 62
     7
100
AcDbSpline
210
0.0
220
0.0
230
1.0
 70
     8
 71
     2
 72
    17
 73
    14
 74
     0
 42
0.0
 43
0.0
 12
1.0
 22
0.0
 32
0.0
 13
1.0
 23
-0.0000000000000283
 33
0.0
 40
0.0
 40
0.0
 40
0.0
 40
0.0833333335273589
 40
0.1666666665890565
 40
0.2500000001164153
 40
0.3333333331781129
 40
0.4166666667054718
 40
0.5000000002328306
 40
0.5833333332945282
 40
0.6666666668218871
 40
0.7499999998835847
 40
0.8333333334109435
 40
0.9166666664726412
 40
1.0
 40
1.0
 40
1.0
 10
-524.26490559404272
 20
-224.93144076662497
 30
0.0
 10
-523.2600961241493
 20
-224.93144076662497
 30
0.0
 10
-521.51971506698806
 20
-223.92663129367952
 30
0.0
 10
-520.51490559404272
 20
-222.18625023651839
 30
0.0
 10
-520.51490559404272
 20
-220.17663129367952
 30
0.0
 10
-521.51971506698806
 20
-218.43625023651839
 30
0.0
 10
-523.2600961241493
 20
-217.43144076662497
 30
0.0
 10
-525.26971506698806
 20
-217.43144076662497
 30
0.0
 10
-527.0100961241493
 20
-218.43625023651839
 30
0.0
 10
-528.01490559404272
 20
-220.17663129367952
 30
0.0
 10
-528.01490559404272
 20
-222.18625023651839
 30
0.0
 10
-527.0100961241493
 20
-223.92663129367952
 30
0.0
 10
-525.26971506698806
 20
-224.93144076662497
 30
0.0
 10
-524.26490559404272
 20
-224.93144076662497
 30
0.0
  0
LINE
  5
CA
100
AcDbEntity
  8
KEINE
370
     0
  6
Continuous
 62
     7
100
AcDbLine
 10
-519.264906
 20
-221.181441
 30
0.0
 11
-529.264906
 21
-221.181441
 31
0.0
  0
LINE
  5
CB
100
AcDbEntity
  8
KEINE
370
     0
  6
Continuous
 62
     7
100
AcDbLine
 10
-524.264906
 20
-226.181441
 30
0.0
 11
-524.264906
 21
-216.181441
 31
0.0
  0
ENDBLK
  5
CC
100
AcDbEntity
  8
KEINE
370
     0
  6
Continuous
 62
     7
100
AcDbBlockEnd
  0
BLOCK
  5
CF
100
AcDbEntity
  8
KEINE
370
     0
  6
Continuous
 62
     7
100
AcDbBlockBegin
  2
*M15
 70
     1
 10
0.0
 20
0.0
 30
0.0
  3
*M15
  1

  0
SPLINE
  5
D0
100
AcDbEntity
  8
KEINE
370
     0
  6
Continuous
 62
     7
100
AcDbSpline
210
0.0
220
0.0
230
1.0
 70
     8
 71
     2
 72
    17
 73
    14
 74
     0
 42
0.0
 43
0.0
 12
1.0
 22
-0.0000000000000283
 32
0.0
 13
1.0
 23
0.0
 33
0.0
 40
0.0
 40
0.0
 40
0.0
 40
0.0833333335273589
 40
0.1666666665890565
 40
0.2500000001164153
 40
0.3333333331781129
 40
0.4166666667054718
 40
0.5000000002328306
 40
0.5833333332945282
 40
0.6666666668218871
 40
0.7499999998835847
 40
0.8333333334109435
 40
0.9166666664726412
 40
1.0
 40
1.0
 40
1.0
 10
-511.83619242530597
 20
-222.3204852076783
 30
0.0
 10
-510.83138295236063
 20
-222.3204852076783
 30
0.0
 10
-509.09100189519938
 20
-221.31567573778489
 30
0.0
 10
-508.08619242530597
 20
-219.57529468062376
 30
0.0
 10
-508.08619242530597
 20
-217.56567573778489
 30
0.0
 10
-509.09100189519938
 20
-215.82529468062376
 30
0.0
 10
-510.83138295236063
 20
-214.8204852076783
 30
0.0
 10
-512.84100189519938
 20
-214.8204852076783
 30
0.0
 10
-514.58138295236063
 20
-215.82529468062376
 30
0.0
 10
-515.58619242530597
 20
-217.56567573778489
 30
0.0
 10
-515.58619242530597
 20
-219.57529468062376
 30
0.0
 10
-514.58138295236063
 20
-221.31567573778489
 30
0.0
 10
-512.84100189519938
 20
-222.3204852076783
 30
0.0
 10
-511.83619242530597
 20
-222.3204852076783
 30
0.0
  0
LINE
  5
D1
100
AcDbEntity
  8
KEINE
370
     0
  6
Continuous
 62
     7
100
AcDbLine
 10
-506.836192
 20
-218.570485
 30
0.0
 11
-516.836192
 21
-218.570485
 31
0.0
  0
LINE
  5
D2
100
AcDbEntity
  8
KEINE
370
     0
  6
Continuous
 62
     7
100
AcDbLine
 10
-511.836192
 20
-223.570485
 30
0.0
 11
-511.836192
 21
-213.570485
 31
0.0
  0
ENDBLK
  5
D3
100
AcDbEntity
  8
KEINE
370
     0
  6
Continuous
 62
     7
100
AcDbBlockEnd
  0
BLOCK
  5
D6
100
AcDbEntity
  8
KEINE
370
     0
  6
Continuous
 62
     7
100
AcDbBlockBegin
  2
*M16
 70
     1
 10
0.0
 20
0.0
 30
0.0
  3
*M16
  1

  0
SPLINE
  5
D7
100
AcDbEntity
  8
KEINE
370
     0
  6
Continuous
 62
     7
100
AcDbSpline
210
0.0
220
0.0
230
1.0
 70
     8
 71
     2
 72
    17
 73
    14
 74
     0
 42
0.0
 43
0.0
 12
1.0
 22
0.0
 32
0.0
 13
1.0
 23
0.0
 33
0.0
 40
0.0
 40
0.0
 40
0.0
 40
0.0833333335273589
 40
0.1666666665890565
 40
0.2500000001164153
 40
0.3333333331781129
 40
0.4166666667054718
 40
0.5000000002328306
 40
0.5833333332945282
 40
0.6666666668218871
 40
0.7499999998835847
 40
0.8333333334109435
 40
0.9166666664726412
 40
1.0
 40
1.0
 40
1.0
 10
-499.40747925351729
 20
-219.70952965178367
 30
0.0
 10
-498.40266978057196
 20
-219.70952965178367
 30
0.0
 10
-496.66228872341071
 20
-218.70472018189025
 30
0.0
 10
-495.65747925351729
 20
-216.96433912472912
 30
0.0
 10
-495.65747925351729
 20
-214.95472018189025
 30
0.0
 10
-496.66228872341071
 20
-213.21433912472912
 30
0.0
 10
-498.40266978057196
 20
-212.20952965178367
 30
0.0
 10
-500.41228872341071
 20
-212.20952965178367
 30
0.0
 10
-502.15266978057196
 20
-213.21433912472912
 30
0.0
 10
-503.15747925351729
 20
-214.95472018189025
 30
0.0
 10
-503.15747925351729
 20
-216.96433912472912
 30
0.0
 10
-502.15266978057196
 20
-218.70472018189025
 30
0.0
 10
-500.41228872341071
 20
-219.70952965178367
 30
0.0
 10
-499.40747925351729
 20
-219.70952965178367
 30
0.0
  0
LINE
  5
D8
100
AcDbEntity
  8
KEINE
370
     0
  6
Continuous
 62
     7
100
AcDbLine
 10
-494.407479
 20
-215.95953
 30
0.0
 11
-504.407479
 21
-215.95953
 31
0.0
  0
LINE
  5
D9
100
AcDbEntity
  8
KEINE
370
     0
  6
Continuous
 62
     7
100
AcDbLine
 10
-499.407479
 20
-220.95953
 30
0.0
 11
-499.407479
 21
-210.95953
 31
0.0
  0
ENDBLK
  5
DA
100
AcDbEntity
  8
KEINE
370
     0
  6
Continuous
 62
     7
100
AcDbBlockEnd
  0
BLOCK
  5
DD
100
AcDbEntity
  8
KEINE
370
     0
  6
Continuous
 62
     7
100
AcDbBlockBegin
  2
*M17
 70
     1
 10
0.0
 20
0.0
 30
0.0
  3
*M17
  1

  0
SPLINE
  5
DE
100
AcDbEntity
  8
KEINE
370
     0
  6
Continuous
 62
     7
100
AcDbSpline
210
0.0
220
0.0
230
1.0
 70
     8
 71
     2
 72
    17
 73
    14
 74
     0
 42
0.0
 43
0.0
 12
1.0
 22
0.0
 32
0.0
 13
1.0
 23
-0.0000000000000283
 33
0.0
 40
0.0
 40
0.0
 40
0.0
 40
0.0833333335273589
 40
0.1666666665890565
 40
0.2500000001164153
 40
0.3333333331781129
 40
0.4166666667054718
 40
0.5000000002328306
 40
0.5833333332945282
 40
0.6666666668218871
 40
0.7499999998835847
 40
0.8333333334109435
 40
0.9166666664726412
 40
1.0
 40
1.0
 40
1.0
 10
-486.97876608172862
 20
-217.09857409588903
 30
0.0
 10
-485.97395661183509
 20
-217.09857409588903
 30
0.0
 10
-484.23357555467396
 20
-216.09376462294381
 30
0.0
 10
-483.22876608172862
 20
-214.35338356578245
 30
0.0
 10
-483.22876608172862
 20
-212.34376462294381
 30
0.0
 10
-484.23357555467396
 20
-210.60338356578245
 30
0.0
 10
-485.97395661183509
 20
-209.59857409588903
 30
0.0
 10
-487.98357555467396
 20
-209.59857409588903
 30
0.0
 10
-489.72395661183509
 20
-210.60338356578245
 30
0.0
 10
-490.72876608172862
 20
-212.34376462294381
 30
0.0
 10
-490.72876608172862
 20
-214.35338356578245
 30
0.0
 10
-489.72395661183509
 20
-216.09376462294381
 30
0.0
 10
-487.98357555467396
 20
-217.09857409588903
 30
0.0
 10
-486.97876608172862
 20
-217.09857409588903
 30
0.0
  0
LINE
  5
DF
100
AcDbEntity
  8
KEINE
370
     0
  6
Continuous
 62
     7
100
AcDbLine
 10
-481.978766
 20
-213.348574
 30
0.0
 11
-491.978766
 21
-213.348574
 31
0.0
  0
LINE
  5
E0
100
AcDbEntity
  8
KEINE
370
     0
  6
Continuous
 62
     7
100
AcDbLine
 10
-486.978766
 20
-218.348574
 30
0.0
 11
-486.978766
 21
-208.348574
 31
0.0
  0
ENDBLK
  5
E1
100
AcDbEntity
  8
KEINE
370
     0
  6
Continuous
 62
     7
100
AcDbBlockEnd
  0
BLOCK
  5
E4
100
AcDbEntity
  8
KEINE
370
     0
  6
Continuous
 62
     7
100
AcDbBlockBegin
  2
*M18
 70
     1
 10
0.0
 20
0.0
 30
0.0
  3
*M18
  1

  0
SPLINE
  5
E5
100
AcDbEntity
  8
KEINE
370
     0
  6
Continuous
 62
     7
100
AcDbSpline
210
0.0
220
0.0
230
1.0
 70
     8
 71
     2
 72
    17
 73
    14
 74
     0
 42
0.0
 43
0.0
 12
1.0
 22
-0.0000000000000283
 32
0.0
 13
1.0
 23
0.0
 33
0.0
 40
0.0
 40
0.0
 40
0.0
 40
0.0833333335273589
 40
0.1666666665890565
 40
0.2500000001164153
 40
0.3333333331781129
 40
0.4166666667054718
 40
0.5000000002328306
 40
0.5833333332945282
 40
0.6666666668218871
 40
0.7499999998835847
 40
0.8333333334109435
 40
0.9166666664726412
 40
1.0
 40
1.0
 40
1.0
 10
-474.55005291299176
 20
-214.48761853694259
 30
0.0
 10
-473.54524344004631
 20
-214.48761853694259
 30
0.0
 10
-471.80486238288529
 20
-213.48280906704917
 30
0.0
 10
-470.80005291299176
 20
-211.74242800988804
 30
0.0
 10
-470.80005291299176
 20
-209.73280906704917
 30
0.0
 10
-471.80486238288529
 20
-207.99242800988804
 30
0.0
 10
-473.54524344004631
 20
-206.98761853694259
 30
0.0
 10
-475.55486238288529
 20
-206.98761853694259
 30
0.0
 10
-477.29524344004631
 20
-207.99242800988804
 30
0.0
 10
-478.30005291299176
 20
-209.73280906704917
 30
0.0
 10
-478.30005291299176
 20
-211.74242800988804
 30
0.0
 10
-477.29524344004631
 20
-213.48280906704917
 30
0.0
 10
-475.55486238288529
 20
-214.48761853694259
 30
0.0
 10
-474.55005291299176
 20
-214.48761853694259
 30
0.0
  0
LINE
  5
E6
100
AcDbEntity
  8
KEINE
370
     0
  6
Continuous
 62
     7
100
AcDbLine
 10
-469.550053
 20
-210.737619
 30
0.0
 11
-479.550053
 21
-210.737619
 31
0.0
  0
LINE
  5
E7
100
AcDbEntity
  8
KEINE
370
     0
  6
Continuous
 62
     7
100
AcDbLine
 10
-474.550053
 20
-215.737619
 30
0.0
 11
-474.550053
 21
-205.737619
 31
0.0
  0
ENDBLK
  5
E8
100
AcDbEntity
  8
KEINE
370
     0
  6
Continuous
 62
     7
100
AcDbBlockEnd
  0
BLOCK
  5
EB
100
AcDbEntity
  8
KEINE
370
     0
  6
Continuous
 62
     7
100
AcDbBlockBegin
  2
*M19
 70
     1
 10
0.0
 20
0.0
 30
0.0
  3
*M19
  1

  0
SPLINE
  5
EC
100
AcDbEntity
  8
KEINE
370
     0
  6
Continuous
 62
     7
100
AcDbSpline
210
0.0
220
0.0
230
1.0
 70
     8
 71
     2
 72
    17
 73
    14
 74
     0
 42
0.0
 43
0.0
 12
1.0
 22
0.0
 32
0.0
 13
1.0
 23
0.0000000000000283
 33
0.0
 40
0.0
 40
0.0
 40
0.0
 40
0.0833333335273589
 40
0.1666666665890565
 40
0.2500000001164153
 40
0.3333333331781129
 40
0.4166666667054718
 40
0.5000000002328306
 40
0.5833333332945282
 40
0.6666666668218871
 40
0.7499999998835847
 40
0.8333333334109435
 40
0.9166666664726412
 40
1.0
 40
1.0
 40
1.0
 10
-462.12133974120297
 20
-211.87666298104796
 30
0.0
 10
-461.11653026825763
 20
-211.87666298104796
 30
0.0
 10
-459.3761492110965
 20
-210.87185351115454
 30
0.0
 10
-458.37133974120297
 20
-209.13147245399341
 30
0.0
 10
-458.37133974120297
 20
-207.12185351115454
 30
0.0
 10
-459.3761492110965
 20
-205.38147245399341
 30
0.0
 10
-461.11653026825763
 20
-204.37666298104796
 30
0.0
 10
-463.1261492110965
 20
-204.37666298104796
 30
0.0
 10
-464.86653026825763
 20
-205.38147245399341
 30
0.0
 10
-465.87133974120297
 20
-207.12185351115454
 30
0.0
 10
-465.87133974120297
 20
-209.13147245399341
 30
0.0
 10
-464.86653026825763
 20
-210.87185351115454
 30
0.0
 10
-463.1261492110965
 20
-211.87666298104796
 30
0.0
 10
-462.12133974120297
 20
-211.87666298104796
 30
0.0
  0
LINE
  5
ED
100
AcDbEntity
  8
KEINE
370
     0
  6
Continuous
 62
     7
100
AcDbLine
 10
-457.12134
 20
-208.126663
 30
0.0
 11
-467.12134
 21
-208.126663
 31
0.0
  0
LINE
  5
EE
100
AcDbEntity
  8
KEINE
370
     0
  6
Continuous
 62
     7
100
AcDbLine
 10
-462.12134
 20
-213.126663
 30
0.0
 11
-462.12134
 21
-203.126663
 31
0.0
  0
ENDBLK
  5
EF
100
AcDbEntity
  8
KEINE
370
     0
  6
Continuous
 62
     7
100
AcDbBlockEnd
  0
BLOCK
  5
F2
100
AcDbEntity
  8
KEINE
370
     0
  6
Continuous
 62
     7
100
AcDbBlockBegin
  2
*M20
 70
     1
 10
0.0
 20
0.0
 30
0.0
  3
*M20
  1

  0
SPLINE
  5
F3
100
AcDbEntity
  8
KEINE
370
     0
  6
Continuous
 62
     7
100
AcDbSpline
210
0.0
220
0.0
230
1.0
 70
     8
 71
     2
 72
    17
 73
    14
 74
     0
 42
0.0
 43
0.0
 12
1.0
 22
0.0
 32
0.0
 13
1.0
 23
0.0
 33
0.0
 40
0.0
 40
0.0
 40
0.0
 40
0.0833333335273589
 40
0.1666666665890565
 40
0.2500000001164153
 40
0.3333333331781129
 40
0.4166666667054718
 40
0.5000000002328306
 40
0.5833333332945282
 40
0.6666666668218871
 40
0.7499999998835847
 40
0.8333333334109435
 40
0.9166666664726412
 40
1.0
 40
1.0
 40
1.0
 10
-449.6926265694143
 20
-209.26570742515332
 30
0.0
 10
-448.68781709952077
 20
-209.26570742515332
 30
0.0
 10
-446.94743604235964
 20
-208.26089795220787
 30
0.0
 10
-445.9426265694143
 20
-206.52051689504674
 30
0.0
 10
-445.9426265694143
 20
-204.51089795220787
 30
0.0
 10
-446.94743604235964
 20
-202.77051689504674
 30
0.0
 10
-448.68781709952077
 20
-201.76570742515332
 30
0.0
 10
-450.69743604235964
 20
-201.76570742515332
 30
0.0
 10
-452.43781709952077
 20
-202.77051689504674
 30
0.0
 10
-453.4426265694143
 20
-204.51089795220787
 30
0.0
 10
-453.4426265694143
 20
-206.52051689504674
 30
0.0
 10
-452.43781709952077
 20
-208.26089795220787
 30
0.0
 10
-450.69743604235964
 20
-209.26570742515332
 30
0.0
 10
-449.6926265694143
 20
-209.26570742515332
 30
0.0
  0
LINE
  5
F4
100
AcDbEntity
  8
KEINE
370
     0
  6
Continuous
 62
     7
100
AcDbLine
 10
-444.692627
 20
-205.515707
 30
0.0
 11
-454.692627
 21
-205.515707
 31
0.0
  0
LINE
  5
F5
100
AcDbEntity
  8
KEINE
370
     0
  6
Continuous
 62
     7
100
AcDbLine
 10
-449.692627
 20
-210.515707
 30
0.0
 11
-449.692627
 21
-200.515707
 31
0.0
  0
ENDBLK
  5
F6
100
AcDbEntity
  8
KEINE
370
     0
  6
Continuous
 62
     7
100
AcDbBlockEnd
  0
ENDSEC
  0
SECTION
  2
ENTITIES
  0
INSERT
  5
38
100
AcDbEntity
  8
KEINE
370
     0
  6
Continuous
 62
     7
100
AcDbBlockReference
  2
*M0
 10
-222.4844
 20
1358.2789
 30
0.0
210
0.0
220
0.0
230
1.0
  0
INSERT
  5
3F
100
AcDbEntity
  8
KEINE
370
     0
  6
Continuous
 62
     7
100
AcDbBlockReference
  2
*M1
 10
-222.4844
 20
1358.2789
 30
0.0
210
0.0
220
0.0
230
1.0
  0
INSERT
  5
47
100
AcDbEntity
  8
KEINE
370
     0
  6
Continuous
 62
     7
100
AcDbBlockReference
  2
*M2
 10
-341.3857
 20
1396.9973
 30
0.0
210
0.0
220
0.0
230
1.0
  0
INSERT
  5
5C
100
AcDbEntity
  8
KEINE
370
     0
  6
Continuous
 62
     7
100
AcDbBlockReference
  2
*M3
 10
-317.0566
 20
1395.8127
 30
0.0
210
0.0
220
0.0
230
1.0
  0
INSERT
  5
63
100
AcDbEntity
  8
KEINE
370
     0
  6
Continuous
 62
     7
100
AcDbBlockReference
  2
*M4
 10
-341.3857
 20
1396.9973
 30
0.0
210
0.0
220
0.0
230
1.0
  0
TEXT
  5
64
100
AcDbEntity
  8
KEINE
370
     0
  6
Continuous
 62
     7
100
AcDbText
 10
-1201.0029
 20
1188.4573
 30
0.0
 40
5.115848
  1
center-T
  7
ROMANS
 11
-1201.0029
 21
1193.5731
 31
0.0
210
0.0
220
0.0
230
1.0
100
AcDbText
 73
     3
  0
TEXT
  5
65
100
AcDbEntity
  8
KEINE
370
     0
  6
Continuous
 62
     7
100
AcDbText
 10
-764.3372
 20
1165.8621
 30
0.0
 40
5.115848
  1
standoff patch
  7
ROMANS
 11
-764.3372
 21
1170.9779
 31
0.0
210
0.0
220
0.0
230
1.0
100
AcDbText
 73
     3
  0
LINE
  5
66
100
AcDbEntity
  8
KEINE
370
     0
  6
Continuous
 62
     7
100
AcDbLine
 10
-1176.781074
 20
919.135842
 30
0.0
 11
-951.216719
 21
1401.912678
 31
0.0
  0
LINE
  5
67
100
AcDbEntity
  8
KEINE
370
     0
  6
Continuous
 62
     7
100
AcDbLine
 10
-888.68969
 20
1364.378956
 30
0.0
 11
-386.291349
 21
1227.278956
 31
0.0
  0
LINE
  5
68
100
AcDbEntity
  8
KEINE
370
     0
  6
Continuous
 62
     7
100
AcDbLine
 10
-358.99116
 20
1442.773625
 30
0.0
 11
-255.829748
 21
1175.655824
 31
0.0
  0
INSERT
  5
75
100
AcDbEntity
  8
KEINE
370
     0
  6
Continuous
 62
     7
100
AcDbBlockReference
  2
*M5
 10
-284.2299
 20
1422.3991
 30
0.0
210
0.0
220
0.0
230
1.0
  0
INSERT
  5
82
100
AcDbEntity
  8
KEINE
370
     0
  6
Continuous
 62
     7
100
AcDbBlockReference
  2
*M6
 10
-152.9231
 20
1380.1736
 30
0.0
210
0.0
220
0.0
230
1.0
  0
INSERT
  5
8A
100
AcDbEntity
  8
KEINE
370
     0
  6
Continuous
 62
     7
100
AcDbBlockReference
  2
*M7
 10
-285.0114
 20
1395.8127
 30
0.0
210
0.0
220
0.0
230
1.0
  0
INSERT
  5
92
100
AcDbEntity
  8
KEINE
370
     0
  6
Continuous
 62
     7
100
AcDbBlockReference
  2
*M8
 10
-222.4844
 20
1358.2789
 30
0.0
210
0.0
220
0.0
230
1.0
  0
INSERT
  5
9A
100
AcDbEntity
  8
KEINE
370
     0
  6
Continuous
 62
     7
100
AcDbBlockReference
  2
*M9
 10
-196.692
 20
1380.1736
 30
0.0
210
0.0
220
0.0
230
1.0
  0
INSERT
  5
A2
100
AcDbEntity
  8
KEINE
370
     0
  6
Continuous
 62
     7
100
AcDbBlockReference
  2
*M10
 10
-152.9231
 20
1380.1736
 30
0.0
210
0.0
220
0.0
230
1.0
  0
INSERT
  5
AA
100
AcDbEntity
  8
KEINE
370
     0
  6
Continuous
 62
     7
100
AcDbBlockReference
  2
*M11
 10
-284.2299
 20
1422.3991
 30
0.0
210
0.0
220
0.0
230
1.0
  0
INSERT
  5
B1
100
AcDbEntity
  8
KEINE
370
     0
  6
Continuous
 62
     7
100
AcDbBlockReference
  2
*M12
 10
-341.3857
 20
1396.9973
 30
0.0
210
0.0
220
0.0
230
1.0
  0
TEXT
  5
B2
100
AcDbEntity
  8
KEINE
370
     0
  6
Continuous
 62
     7
100
AcDbText
 10
-1201.0029
 20
1609.0682
 30
0.0
 40
5.115848
  1
rub-patch center
  7
ROMANS
 11
-1201.0029
 21
1614.184
 31
0.0
210
0.0
220
0.0
230
1.0
100
AcDbText
 73
     3
  0
TEXT
  5
B3
100
AcDbEntity
  8
KEINE
370
     0
  6
Continuous
 62
     7
100
AcDbText
 10
-676.9612
 20
1551.3591
 30
0.0
 40
5.115848
  1
yoyo-stopper
  7
ROMANS
 11
-676.9612
 21
1556.4749
 31
0.0
210
0.0
220
0.0
230
1.0
100
AcDbText
 73
     3
  0
INSERT
  5
BA
100
AcDbEntity
  8
KEINE
370
     0
  6
Continuous
 62
     7
100
AcDbBlockReference
  2
*M13
 10
-284.2299
 20
1422.3991
 30
0.0
210
0.0
220
0.0
230
1.0
  0
TEXT
  5
BB
100
AcDbEntity
  8
KEINE
370
     0
  6
Continuous
 62
     7
100
AcDbText
 10
-783.2611
 20
1427.1142
 30
0.0
 40
18.417054
  1
Thornback Mk 2
  7
ROMANS
 11
-783.2611
 21
1445.5313
 31
0.0
210
0.0
220
0.0
230
1.0
100
AcDbText
 73
     3
  0
LINE
  5
BD
100
AcDbEntity
  8
KEINE
370
     0
  6
STYLE_03
 62
     7
100
AcDbLine
 10
-970.011445
 20
1110.410914
 30
0.0
 11
-854.552524
 21
1215.812678
 31
0.0
  0
LINE
  5
BE
100
AcDbEntity
  8
KEINE
370
     0
  6
STYLE_03
 62
     7
100
AcDbLine
 10
-792.025495
 20
1178.278956
 30
0.0
 11
-384.27724
 21
1215.278956
 31
0.0
  0
TEXT
  5
BF
100
AcDbEntity
  8
KEINE
370
     0
  6
Continuous
 62
     7
100
AcDbText
 10
-558.5372
 20
1191.6715
 30
0.0
 40
5.115848
  1
reinforcement on back of sail
  7
ROMANS
 11
-558.5372
 21
1196.7873
 31
0.0
210
0.0
220
0.0
230
1.0
100
AcDbText
 73
     3
  0
POLYLINE
  5
C0
100
AcDbEntity
  8
KEINE
370
     0
  6
Continuous
 62
     7
100
AcDb2dPolyline
 66
     1
 10
0.0
 20
0.0
 30
0.0
210
0.0
220
0.0
230
1.0
  0
VERTEX
  5
C1
100
AcDbEntity
  8
KEINE
370
     0
  6
Continuous
 62
     7
100
AcDbVertex
100
AcDb2dVertex
 10
-759.054963
 20
1134.575354
 30
0.0
  0
VERTEX
  5
C2
100
AcDbEntity
  8
KEINE
370
     0
  6
Continuous
 62
     7
100
AcDbVertex
100
AcDb2dVertex
 10
-634.907883
 20
1160.655489
 30
0.0
 42
0.414214
  0
VERTEX
  5
C3
100
AcDbEntity
  8
KEINE
370
     0
  6
Continuous
 62
     7
100
AcDbVertex
100
AcDb2dVertex
 10
-656.223949
 20
1174.570421
 30
0.0
  0
VERTEX
  5
C4
100
AcDbEntity
  8
KEINE
370
     0
  6
Continuous
 62
     7
100
AcDbVertex
100
AcDb2dVertex
 10
-745.140031
 20
1155.89142
 30
0.0
 42
0.414214
  0
VERTEX
  5
C5
100
AcDbEntity
  8
KEINE
370
     0
  6
Continuous
 62
     7
100
AcDbVertex
100
AcDb2dVertex
 10
-759.054963
 20
1134.575354
 30
0.0
  0
SEQEND
  5
C6
100
AcDbEntity
  8
KEINE
370
     0
  6
Continuous
 62
     7
  0
INSERT
  5
CD
100
AcDbEntity
  8
KEINE
370
     0
  6
Continuous
 62
     7
100
AcDbBlockReference
  2
*M14
 10
-222.4844
 20
1358.2789
 30
0.0
210
0.0
220
0.0
230
1.0
  0
INSERT
  5
D4
100
AcDbEntity
  8
KEINE
370
     0
  6
Continuous
 62
     7
100
AcDbBlockReference
  2
*M15
 10
-222.4844
 20
1358.2789
 30
0.0
210
0.0
220
0.0
230
1.0
  0
INSERT
  5
DB
100
AcDbEntity
  8
KEINE
370
     0
  6
Continuous
 62
     7
100
AcDbBlockReference
  2
*M16
 10
-222.4844
 20
1358.2789
 30
0.0
210
0.0
220
0.0
230
1.0
  0
INSERT
  5
E2
100
AcDbEntity
  8
KEINE
370
     0
  6
Continuous
 62
     7
100
AcDbBlockReference
  2
*M17
 10
-222.4844
 20
1358.2789
 30
0.0
210
0.0
220
0.0
230
1.0
  0
INSERT
  5
E9
100
AcDbEntity
  8
KEINE
370
     0
  6
Continuous
 62
     7
100
AcDbBlockReference
  2
*M18
 10
-222.4844
 20
1358.2789
 30
0.0
210
0.0
220
0.0
230
1.0
  0
INSERT
  5
F0
100
AcDbEntity
  8
KEINE
370
     0
  6
Continuous
 62
     7
100
AcDbBlockReference
  2
*M19
 10
-222.4844
 20
1358.2789
 30
0.0
210
0.0
220
0.0
230
1.0
  0
INSERT
  5
F7
100
AcDbEntity
  8
KEINE
370
     0
  6
Continuous
 62
     7
100
AcDbBlockReference
  2
*M20
 10
-222.4844
 20
1358.2789
 30
0.0
210
0.0
220
0.0
230
1.0
  0
LWPOLYLINE
  5
F8
100
AcDbEntity
  8
KEINE
370
     0
  6
Continuous
 62
     7
100
AcDbPolyline
 90
        3
 70
     1
 10
-742.805874
 20
1118.993675
 10
-725.835311
 20
1118.993675
 10
-734.320592
 20
1127.478956
210
0.0
220
0.0
230
1.0
  0
LWPOLYLINE
  5
F9
100
AcDbEntity
  8
KEINE
370
     0
  6
Continuous
 62
     7
100
AcDbPolyline
 90
        3
 70
     1
 10
-668.233595
 20
1136.593675
 10
-651.263032
 20
1136.593675
 10
-659.748313
 20
1145.078956
210
0.0
220
0.0
230
1.0
  0
TEXT
  5
FA
100
AcDbEntity
  8
KEINE
370
     0
  6
Continuous
 62
     7
100
AcDbText
 10
-718.1372
 20
1119.5621
 30
0.0
 40
5.115848
  1
current favorite positions
  7
ROMANS
 11
-718.1372
 21
1124.6779
 31
0.0
210
0.0
220
0.0
230
1.0
100
AcDbText
 73
     3
  0
LINE
  5
FC
100
AcDbEntity
  8
1
370
     0
  6
Continuous
 62
     7
100
AcDbLine
 10
-1221.481896
 20
1820.30828
 30
0.0
 11
-1238.695898
 21
1820.382545
 31
0.0
  0
LINE
  5
FD
100
AcDbEntity
  8
1
370
     0
  6
Continuous
 62
     7
100
AcDbLine
 10
-1238.695898
 20
1820.382545
 30
0.0
 11
-1238.724985
 21
920.320461
 31
0.0
  0
LINE
  5
FE
100
AcDbEntity
  8
1
370
     0
  6
Continuous
 62
     7
100
AcDbLine
 10
-1238.724985
 20
920.320461
 30
0.0
 11
-1230.395943
 21
920.320461
 31
0.0
  0
LINE
  5
FF
100
AcDbEntity
  8
1
370
     0
  6
Continuous
 62
     7
100
AcDbLine
 10
-1230.395943
 20
920.320461
 30
0.0
 11
-1004.804256
 21
1403.155799
 31
0.0
  0
LINE
  5
100
100
AcDbEntity
  8
1
370
     0
  6
Continuous
 62
     7
100
AcDbLine
 10
-1007.591001
 20
1403.097298
 30
0.0
 11
-1224.305356
 21
1820.320461
 31
0.0
  0
TEXT
  5
101
100
AcDbEntity
  8
KEINE
370
     0
  6
Continuous
 62
     7
100
AcDbText
 10
-1194.9866
 20
1430.0004
 30
0.0
 40
5.115848
  1
top spreader %%dI%%dI515 mm
  7
ROMANS
 11
-1194.9866
 21
1435.1162
 31
0.0
210
0.0
220
0.0
230
1.0
100
AcDbText
 73
     3
  0
TEXT
  5
102
100
AcDbEntity
  8
KEINE
370
     0
  6
Continuous
 62
     7
100
AcDbText
 10
-1194.9866
 20
1422.3266
 30
0.0
 40
5.115848
  1
spine%%dI%%dI%%dI900 mm
  7
ROMANS
 11
-1194.9866
 21
1427.4424
 31
0.0
210
0.0
220
0.0
230
1.0
100
AcDbText
 73
     3
  0
TEXT
  5
103
100
AcDbEntity
  8
KEINE
370
     0
  6
Continuous
 62
     7
100
AcDbText
 10
-1194.9866
 20
1414.6529
 30
0.0
 40
5.115848
  1
upper LE%%dI%%dI%%dI750 mm
  7
ROMANS
 11
-1194.9866
 21
1419.7687
 31
0.0
210
0.0
220
0.0
230
1.0
100
AcDbText
 73
     3
  0
TEXT
  5
104
100
AcDbEntity
  8
KEINE
370
     0
  6
Continuous
 62
     7
100
AcDbText
 10
-1194.9866
 20
1406.9791
 30
0.0
 40
5.115848
  1
lower LE%%dI%%dI%%dI750 mm
  7
ROMANS
 11
-1194.9866
 21
1412.0949
 31
0.0
210
0.0
220
0.0
230
1.0
100
AcDbText
 73
     3
  0
TEXT
  5
105
100
AcDbEntity
  8
KEINE
370
     0
  6
Continuous
 62
     7
100
AcDbText
 10
-1194.9866
 20
1399.3054
 30
0.0
 40
5.115848
  1
spreader%%dI%%dI%%dI750 mm
  7
ROMANS
 11
-1194.9866
 21
1404.4212
 31
0.0
210
0.0
220
0.0
230
1.0
100
AcDbText
 73
     3
  0
TEXT
  5
106
100
AcDbEntity
  8
KEINE
370
     0
  6
Continuous
 62
     7
100
AcDbText
 10
-1194.9866
 20
1391.6316
 30
0.0
 40
5.115848
  1
standoffs%%dI%%dI250 mm at
  7
ROMANS
 11
-1194.9866
 21
1396.7474
 31
0.0
210
0.0
220
0.0
230
1.0
100
AcDbText
 73
     3
  0
TEXT
  5
107
100
AcDbEntity
  8
KEINE
370
     0
  6
Continuous
 62
     7
100
AcDbText
 10
-1194.9866
 20
1383.9579
 30
0.0
 40
5.115848
  1
right angles to spreader
  7
ROMANS
 11
-1194.9866
 21
1389.0737
 31
0.0
210
0.0
220
0.0
230
1.0
100
AcDbText
 73
     3
  0
SPLINE
  5
108
100
AcDbEntity
  8
KEINE
370
     0
  6
Continuous
 62
     7
100
AcDbSpline
210
0.0
220
0.0
230
1.0
 70
     8
 71
     2
 72
     9
 73
     6
 74
     0
 42
0.0
 43
0.0
 12
-0.9670011628879516
 22
-0.2547719587657741
 32
0.0
 13
-1.0
 23
0.0
 33
0.0
 40
0.0
 40
0.0
 40
0.0
 40
0.3852549620835367
 40
0.7950849872059584
 40
0.7950849872059584
 40
1.0
 40
1.0
 40
1.0
 10
-830.67857257301557
 20
1169.8500304086429
 30
0.0
 10
-905.30603086642054
 20
1150.1882301370283
 30
0.0
 10
-1092.7801550737022
 20
1034.8126779656363
 30
0.0
 10
-1171.2114447706533
 20
919.13584166692112
 30
0.0
 10
-1173.9962593127232
 20
919.13584166692112
 30
0.0
 10
-1176.7810738517412
 20
919.13584166692112
 30
0.0
  0
LINE
  5
109
100
AcDbEntity
  8
KEINE
370
     0
  6
Continuous
 62
     7
100
AcDbLine
 10
-1167.149515
 20
1845.722229
 30
0.0
 11
-950.43516
 21
1428.499066
 31
0.0
  0
LINE
  5
10A
100
AcDbEntity
  8
KEINE
370
     0
  6
Continuous
 62
     7
100
AcDbLine
 10
-951.216719
 20
1401.912678
 30
0.0
 11
-830.678573
 21
1169.85003
 31
0.0
  0
LINE
  5
10B
100
AcDbEntity
  8
KEINE
370
     0
  6
Continuous
 62
     7
100
AcDbLine
 10
-484.009332
 20
1505.722229
 30
0.0
 11
-448.036819
 21
1291.399066
 31
0.0
  0
LINE
  5
10C
100
AcDbEntity
  8
KEINE
370
     0
  6
Continuous
 62
     7
100
AcDbLine
 10
-386.291349
 20
1227.278956
 30
0.0
 11
-375.886899
 21
1165.289548
 31
0.0
  0
SPLINE
  5
10D
100
AcDbEntity
  8
KEINE
370
     0
  6
Continuous
 62
     7
100
AcDbSpline
210
0.0
220
0.0
230
1.0
 70
     8
 71
     2
 72
    11
 73
     8
 74
     0
 42
0.0
 43
0.0
 12
-0.9963398063832334
 22
0.0854809348113441
 32
0.0
 13
-0.9685233565239207
 23
-0.2489226945612601
 33
0.0
 40
0.0
 40
0.0
 40
0.0
 40
0.2397703645936075
 40
0.6111352320812341
 40
0.6111352320812341
 40
0.9825000977062155
 40
0.9825000977062155
 40
1.0
 40
1.0
 40
1.0
 10
-375.88689865108188
 20
1165.2895476149786
 30
0.0
 10
-443.38825092318496
 20
1171.0808234992523
 30
0.0
 10
-605.48441548203982
 20
1166.1650026001771
 30
0.0
 10
-634.90788275704222
 20
1160.6554886562701
 30
0.0
 10
-696.98142304757835
 20
1147.6154214575643
 30
0.0
 10
-759.05496334116651
 20
1134.5753542558061
 30
0.0
 10
-762.72724878078554
 20
1133.7104203436384
 30
0.0
 10
-768.15154328440201
 20
1132.3163083742791
 30
0.0
  0
SPLINE
  5
10E
100
AcDbEntity
  8
KEINE
370
     0
  6
Continuous
 62
     7
100
AcDbSpline
210
0.0
220
0.0
230
1.0
 70
     8
 71
     2
 72
    11
 73
     8
 74
     0
 42
0.0
 43
0.0
 12
0.8543453853728439
 22
-0.5197056498558842
 32
0.0
 13
-0.9880534956682678
 23
0.154111289974863
 33
0.0
 40
0.0
 40
0.0
 40
0.0
 40
0.2555787955669587
 40
0.2555787955669587
 40
0.51115759206524
 40
0.51115759206524
 40
0.7667363867008762
 40
1.0
 40
1.0
 40
1.0
 10
-130.42310995818963
 20
1334.6736249031037
 30
0.0
 10
38.076890041810358
 20
1232.1736249031037
 30
0.0
 10
236.50367693716242
 20
1075.1829797418134
 30
0.0
 10
231.40015092013306
 20
1068.3717663197731
 30
0.0
 10
226.29662490310372
 20
1061.5605528977326
 30
0.0
 10
133.07689004181037
 20
1095.91182420423
 30
0.0
 10
-111.74713047883542
 20
1160.0094318765832
 30
0.0
 10
-212.06082303231909
 20
1175.6558241309856
 30
0.0
  0
SPLINE
  5
10F
100
AcDbEntity
  8
KEINE
370
     0
  6
Continuous
 62
     7
100
AcDbSpline
210
0.0
220
0.0
230
1.0
 70
     8
 71
     2
 72
     7
 73
     4
 74
     0
 42
0.0
 43
0.0
 12
-0.9880673573011808
 22
0.1540223926442539
 32
0.0
 13
-0.9962687073591207
 23
0.0863056356038629
 33
0.0
 40
0.0
 40
0.0
 40
0.0
 40
0.1984224390231177
 40
1.0
 40
1.0
 40
1.0
 10
-255.82974822229684
 20
1175.6558241309856
 30
0.0
 10
-265.33594027527698
 20
1177.1376729483932
 30
0.0
 10
-312.48834493545337
 20
1183.92643615833
 30
0.0
 10
-350.09451831720941
 20
1187.18421658681
 30
0.0
  0
SPLINE
  5
110
100
AcDbEntity
  8
KEINE
370
     0
  6
Continuous
 62
     7
100
AcDbSpline
210
0.0
220
0.0
230
1.0
 70
     8
 71
     2
 72
     9
 73
     6
 74
     0
 42
0.0
 43
0.0
 12
1.0
 22
0.0
 32
0.0
 13
0.8774883131100638
 23
-0.4795980195489287
 33
0.0
 40
0.0
 40
0.0
 40
0.0
 40
0.278538427445357
 40
0.278538427445357
 40
0.8356152832673934
 40
1.0
 40
1.0
 40
1.0
 10
-1167.1495146061586
 20
1845.7222294106875
 30
0.0
 10
-1159.939700064089
 20
1845.7222294106875
 30
0.0
 10
-1152.729885525071
 20
1845.7222294106875
 30
0.0
 10
-706.74824051026951
 20
1621.8208883968628
 30
0.0
 10
-527.69092991729485
 20
1529.5967445722831
 30
0.0
 10
-484.0093316171758
 20
1505.7222294106878
 30
0.0
  0
SPLINE
  5
111
100
AcDbEntity
  8
KEINE
370
     0
  6
Continuous
 62
     7
100
AcDbSpline
210
0.0
220
0.0
230
1.0
 70
     8
 71
     2
 72
     6
 73
     3
 74
     0
 42
0.0
 43
0.0
 12
0.8728634183334418
 22
-0.4879646021334528
 32
0.0
 13
0.8543453853799105
 23
-0.5197056498442675
 33
0.0
 40
0.0
 40
0.0
 40
0.0
 40
1.0
 40
1.0
 40
1.0
 10
-315.22223516037479
 20
1442.7736249031038
 30
0.0
 10
-227.64513728446306
 20
1393.8146207525865
 30
0.0
 10
-130.42310995818963
 20
1334.6736249031037
 30
0.0
  0
LINE
  5
112
100
AcDbEntity
  8
KEINE
370
     0
  6
Continuous
 62
     7
100
AcDbLine
 10
-888.68969
 20
1364.378956
 30
0.0
 11
-768.151543
 21
1132.316308
 31
0.0
  0
LINE
  5
113
100
AcDbEntity
  8
KEINE
370
     0
  6
Continuous
 62
     7
100
AcDbLine
 10
-950.43516
 20
1428.499066
 30
0.0
 11
-448.036819
 21
1291.399066
 31
0.0
  0
LINE
  5
114
100
AcDbEntity
  8
KEINE
370
     0
  6
Continuous
 62
     7
100
AcDbLine
 10
-360.498969
 20
1249.173625
 30
0.0
 11
-350.094518
 21
1187.184217
 31
0.0
  0
LINE
  5
115
100
AcDbEntity
  8
KEINE
370
     0
  6
Continuous
 62
     7
100
AcDbLine
 10
-396.471481
 20
1463.496789
 30
0.0
 11
-360.498969
 21
1249.173625
 31
0.0
  0
SPLINE
  5
116
100
AcDbEntity
  8
KEINE
370
     0
  6
Continuous
 62
     7
100
AcDbSpline
210
0.0
220
0.0
230
1.0
 70
     8
 71
     2
 72
     6
 73
     3
 74
     0
 42
0.0
 43
0.0
 12
0.877407321891223
 22
-0.4797461740250482
 32
0.0
 13
0.8728987010789239
 23
-0.4879014835545466
 33
0.0
 40
0.0
 40
0.0
 40
0.0
 40
1.0
 40
1.0
 40
1.0
 10
-396.47148124027228
 20
1463.4967886043887
 30
0.0
 10
-377.87714763023774
 20
1453.3298340037234
 30
0.0
 10
-358.99116035035252
 20
1442.7736249031038
 30
0.0
  0
LINE
  5
117
100
AcDbEntity
  8
KEINE
370
     0
  6
Continuous
 62
     7
100
AcDbLine
 10
-315.222235
 20
1442.773625
 30
0.0
 11
-212.060823
 21
1175.655824
 31
0.0
  0
LINE
  5
118
100
AcDbEntity
  8
1
370
     0
  6
Continuous
 62
     7
100
AcDbLine
 10
-1233.155356
 20
920.320461
 30
0.0
 11
-1007.591001
 21
1403.097298
 31
0.0
  0
LINE
  5
119
100
AcDbEntity
  8
KEINE
370
     0
  6
Continuous
 62
     7
100
AcDbLine
 10
-1179.540486
 20
919.135842
 30
0.0
 11
-951.335371
 21
1407.564714
 31
0.0
  0
LINE
  5
11A
100
AcDbEntity
  8
KEINE
370
     0
  6
Continuous
 62
     7
100
AcDbLine
 10
-951.335371
 20
1407.564714
 30
0.0
 11
-828.138879
 21
1170.384163
 31
0.0
  0
LINE
  5
11B
100
AcDbEntity
  8
1
370
     0
  6
Continuous
 62
     7
100
AcDbLine
 10
-1004.804256
 20
1403.155799
 30
0.0
 11
-1221.481896
 21
1820.30828
 31
0.0
  0
LINE
  5
11C
100
AcDbEntity
  8
KEINE
370
     0
  6
Continuous
 62
     7
100
AcDbLine
 10
-1169.966647
 20
1845.722229
 30
0.0
 11
-952.149217
 21
1426.375401
 31
0.0
  0
LINE
  5
11D
100
AcDbEntity
  8
KEINE
370
     0
  6
Continuous
 62
     7
100
AcDbLine
 10
-952.149217
 20
1426.375401
 30
0.0
 11
-444.924341
 21
1287.958283
 31
0.0
  0
LINE
  5
11E
100
AcDbEntity
  8
KEINE
370
     0
  6
Continuous
 62
     7
100
AcDbLine
 10
-893.540426
 20
1368.294094
 30
0.0
 11
-770.593124
 21
1131.593287
 31
0.0
  0
LINE
  5
11F
100
AcDbEntity
  8
KEINE
370
     0
  6
Continuous
 62
     7
100
AcDbLine
 10
-893.540426
 20
1368.294094
 30
0.0
 11
-384.090526
 21
1229.269786
 31
0.0
  0
LINE
  5
120
100
AcDbEntity
  8
KEINE
370
     0
  6
Continuous
 62
     7
100
AcDbLine
 10
-384.090526
 20
1229.269786
 30
0.0
 11
-373.31391
 21
1165.063029
 31
0.0
  0
LINE
  5
121
100
AcDbEntity
  8
KEINE
370
     0
  6
Continuous
 62
     7
100
AcDbLine
 10
-481.207339
 20
1504.131312
 30
0.0
 11
-444.924341
 21
1287.958283
 31
0.0
  0
LINE
  5
122
100
AcDbEntity
  8
KEINE
370
     0
  6
Continuous
 62
     7
100
AcDbLine
 10
-399.280915
 20
1465.132041
 30
0.0
 11
-362.964482
 21
1248.759807
 31
0.0
  0
LINE
  5
123
100
AcDbEntity
  8
KEINE
370
     0
  6
Continuous
 62
     7
100
AcDbLine
 10
-362.964482
 20
1248.759807
 30
0.0
 11
-352.668905
 21
1187.419067
 31
0.0
  0
LINE
  5
124
100
AcDbEntity
  8
KEINE
370
     0
  6
Continuous
 62
     7
100
AcDbLine
 10
-355.493881
 20
1440.657331
 30
0.0
 11
-252.995179
 21
1175.255497
 31
0.0
  0
LINE
  5
125
100
AcDbEntity
  8
KEINE
370
     0
  6
Continuous
 62
     7
100
AcDbLine
 10
-318.714035
 20
1444.875731
 30
0.0
 11
-214.923535
 21
1176.12902
 31
0.0
  0
LINE
  5
126
100
AcDbEntity
  8
1
370
     0
  6
Continuous
 62
     7
100
AcDbLine
 10
-1167.149515
 20
1845.722229
 30
0.0
 11
-1169.966647
 21
1845.722229
 31
0.0
  0
LINE
  5
127
100
AcDbEntity
  8
1
370
     0
  6
Continuous
 62
     7
100
AcDbLine
 10
-1176.781074
 20
919.135842
 30
0.0
 11
-1179.540486
 21
919.135842
 31
0.0
  0
LINE
  5
128
100
AcDbEntity
  8
1
370
     0
  6
Continuous
 62
     7
100
AcDbLine
 10
-830.678573
 20
1169.85003
 30
0.0
 11
-828.138879
 21
1170.384163
 31
0.0
  0
LINE
  5
129
100
AcDbEntity
  8
1
370
     0
  6
Continuous
 62
     7
100
AcDbLine
 10
-768.151543
 20
1132.316308
 30
0.0
 11
-770.593124
 21
1131.593287
 31
0.0
  0
LINE
  5
12A
100
AcDbEntity
  8
1
370
     0
  6
Continuous
 62
     7
100
AcDbLine
 10
-375.886899
 20
1165.289548
 30
0.0
 11
-373.31391
 21
1165.063029
 31
0.0
  0
LINE
  5
12B
100
AcDbEntity
  8
1
370
     0
  6
Continuous
 62
     7
100
AcDbLine
 10
-350.094518
 20
1187.184217
 30
0.0
 11
-352.668905
 21
1187.419067
 31
0.0
  0
LINE
  5
12C
100
AcDbEntity
  8
1
370
     0
  6
Continuous
 62
     7
100
AcDbLine
 10
-255.829748
 20
1175.655824
 30
0.0
 11
-252.995179
 21
1175.255497
 31
0.0
  0
LINE
  5
12D
100
AcDbEntity
  8
1
370
     0
  6
Continuous
 62
     7
100
AcDbLine
 10
-212.060823
 20
1175.655824
 30
0.0
 11
-214.923535
 21
1176.12902
 31
0.0
  0
LINE
  5
12E
100
AcDbEntity
  8
1
370
     0
  6
Continuous
 62
     7
100
AcDbLine
 10
-484.009332
 20
1505.722229
 30
0.0
 11
-481.207339
 21
1504.131312
 31
0.0
  0
LINE
  5
12F
100
AcDbEntity
  8
1
370
     0
  6
Continuous
 62
     7
100
AcDbLine
 10
-396.471481
 20
1463.496789
 30
0.0
 11
-399.280915
 21
1465.132041
 31
0.0
  0
LINE
  5
130
100
AcDbEntity
  8
1
370
     0
  6
Continuous
 62
     7
100
AcDbLine
 10
-358.99116
 20
1442.773625
 30
0.0
 11
-355.493881
 21
1440.657331
 31
0.0
  0
LINE
  5
131
100
AcDbEntity
  8
1
370
     0
  6
Continuous
 62
     7
100
AcDbLine
 10
-315.222235
 20
1442.773625
 30
0.0
 11
-318.714035
 21
1444.875731
 31
0.0
  0
ENDSEC
  0
SECTION
  2
OBJECTS
  0
DICTIONARY
  5
19
100
AcDbDictionary
280
     0
281
     1
  3
ACAD_GROUP
350
1A
  3
ACAD_MLINESTYLE
350
1B
  3
ACAD_LAYOUT
350
1E
  3
ACAD_PLOTSETTINGS
350
22
  3
ACAD_PLOTSTYLENAME
350
1F
  3
ACAD_WIPEOUT_VARS
350
23
  0
DICTIONARY
  5
1A
102
{ACAD_REACTORS
330
19
102
}
100
AcDbDictionary
280
     0
281
     1
  0
DICTIONARY
  5
1B
102
{ACAD_REACTORS
330
19
102
}
100
AcDbDictionary
280
     0
281
     1
  3
Standard
350
1C
  0
MLINESTYLE
  5
1C
102
{ACAD_REACTORS
330
1B
102
}
100
AcDbMlineStyle
  2
Standard
 70
     0
  3

 62
     0
 51
90.0
 52
90.0
 71
     2
 49
0.5
 62
   256
  6
BYLAYER
 49
-0.5
 62
   256
  6
BYLAYER
  0
ACDBDICTIONARYWDFLT
  5
1F
102
{ACAD_REACTORS
330
19
102
}
100
AcDbDictionary
281
     1
  3
Normal
350
1D
100
AcDbDictionaryWithDefault
340
1D
  0
ACDBPLACEHOLDER
  5
1D
102
{ACAD_REACTORS
330
1F
102
}
  0
LAYOUT
  5
20
102
{ACAD_REACTORS
330
1E
102
}
100
AcDbPlotSettings
  1

  2

  4

  6

 40
0.0
 41
0.0
 42
0.0
 43
0.0
 44
0.0
 45
0.0
 46
0.0
 47
0.0
 48
0.0
 49
0.0
140
0.0
141
0.0
142
1.0
143
1.0
 70
  1024
 72
     0
 73
     0
 74
     0
  7

 75
     0
147
1.0
148
0.0
149
0.0
100
AcDbLayout
  1
Model
 70
     0
 71
     0
 10
0.0
 20
0.0
 11
0.0
 21
0.0
 12
0.0
 22
0.0
 32
0.0
 14
0.0
 24
0.0
 34
0.0
 15
0.0
 25
0.0
 35
0.0
146
0.0
 13
0.0
 23
0.0
 33
0.0
 16
0.0
 26
0.0
 36
0.0
 17
0.0
 27
0.0
 37
0.0
 76
     0
330
A
331
0
345
0
346
0
  0
LAYOUT
  5
21
102
{ACAD_REACTORS
330
1E
102
}
100
AcDbPlotSettings
  1

  2

  4

  6

 40
0.0
 41
0.0
 42
0.0
 43
0.0
 44
0.0
 45
0.0
 46
0.0
 47
0.0
 48
0.0
 49
0.0
140
0.0
141
0.0
142
1.0
143
1.0
 70
     0
 72
     0
 73
     0
 74
     0
  7

 75
     0
147
1.0
148
0.0
149
0.0
100
AcDbLayout
  1
Layout1
 70
     0
 71
     0
 10
0.0
 20
0.0
 11
0.0
 21
0.0
 12
0.0
 22
0.0
 32
0.0
 14
0.0
 24
0.0
 34
0.0
 15
0.0
 25
0.0
 35
0.0
146
0.0
 13
0.0
 23
0.0
 33
0.0
 16
0.0
 26
0.0
 36
0.0
 17
0.0
 27
0.0
 37
0.0
 76
     0
330
B
331
0
345
0
346
0
  0
DICTIONARY
  5
1E
102
{ACAD_REACTORS
330
19
102
}
100
AcDbDictionary
280
     0
281
     1
  3
Layout1
350
21
  3
Model
350
20
  0
DICTIONARY
  5
22
102
{ACAD_REACTORS
330
19
102
}
100
AcDbDictionary
280
     0
281
     1
  0
WIPEOUTVARIABLES
  5
23
100
AcDbWipeoutVariables
 70
     1
  0
ENDSEC
  0
EOF
